0
SECTION
2
HEADER
0
ENDSEC
0
SECTION
2
TABLES
0
TABLE
2
LTYPE
0
LTYPE
2
Continuous
70
0
3
Solid line
72
65
73
0
40
0.000000
0
ENDTAB
0
TABLE
2
LAYER
0
LAYER
2
0
70
0
62
7
6
Continuous
0
ENDTAB
0
TABLE
2
STYLE
0
STYLE
2
Standard
3
Arial
70
0
71
0
40
5.000000
41
1.000000
42
5.000000
50
0.000000
0
ENDTAB
0
TABLE
2
DIMSTYLE
0
DIMSTYLE
2
Standard
70
0
3

4

5

6
CLOSEDFILLED
7
CLOSEDFILLED
40
1.000000
41
2.000000
42
1.000000
43
5.000000
44
2.000000
45
0.000000
46
0.000000
47
0.000000
48
0.000000
140
5.000000
141
2.000000
142
0.000000
143
25.400000
144
1.000000
145
0.000000
146
1.000000
147
2.000000
71
0
72
0
73
0
74
1
75
0
76
0
77
0
78
0
170
0
171
4
172
0
173
1
174
0
175
0
176
0
177
-2
178
-2
271
4
272
4
273
1
274
4
275
0
280
0
281
0
282
0
283
1
288
0
0
ENDTAB
0
ENDSEC
0
SECTION
2
BLOCKS
0
BLOCK
8
0
2
_CLOSEDFILLED
70
0
10
0.000000
20
0.000000
3
_CLOSEDFILLED
0
SOLID
8
0
10
-1.000000
20
0.166667
30
0.000000
11
-1.000000
21
-0.166667
31
0.000000
12
0.000000
22
0.000000
32
0.000000
13
0.000000
23
0.000000
33
0.000000
0
ENDBLK
0
BLOCK
8
0
2
_CLOSEDBLANK
70
0
10
0.000000
20
0.000000
3
_CLOSEDBLANK
0
LINE
8
0
10
-1.000000
20
0.166667
30
0.000000
11
0.000000
21
0.000000
31
0.000000
0
LINE
8
0
10
0.000000
20
0.000000
30
0.000000
11
-1.000000
21
-0.166667
31
0.000000
0
LINE
8
0
10
-1.000000
20
0.166667
30
0.000000
11
-1.000000
21
-0.166667
31
0.000000
0
ENDBLK
0
BLOCK
8
0
2
_CLOSED
70
0
10
0.000000
20
0.000000
3
_CLOSED
0
LINE
8
0
10
-1.000000
20
0.166667
30
0.000000
11
0.000000
21
0.000000
31
0.000000
0
LINE
8
0
10
0.000000
20
0.000000
30
0.000000
11
-1.000000
21
-0.166667
31
0.000000
0
LINE
8
0
10
-1.000000
20
0.166667
30
0.000000
11
-1.000000
21
-0.166667
31
0.000000
0
LINE
8
0
10
0.000000
20
0.000000
30
0.000000
11
-1.000000
21
0.000000
31
0.000000
0
ENDBLK
0
BLOCK
8
0
2
_DOT
70
0
10
0.000000
20
0.000000
3
_DOT
0
POLYLINE
8
0
70
1
66
 1
10
0.0
20
0.0
30
0.000000
0
VERTEX
8
0
10
0.250000
20
0.000000
30
0.000000
42
1.000000
0
VERTEX
8
0
10
-0.250000
20
0.000000
30
0.000000
42
1.000000
0
SEQEND
8
0
0
LINE
8
0
10
-0.500000
20
0.000000
30
0.000000
11
-1.000000
21
0.000000
31
0.000000
0
ENDBLK
0
BLOCK
8
0
2
_ARCHTICK
70
0
10
0.000000
20
0.000000
3
_ARCHTICK
0
POLYLINE
8
0
70
0
66
 1
10
0.0
20
0.0
30
0.000000
0
VERTEX
8
0
10
0.500000
20
0.500000
30
0.000000
0
VERTEX
8
0
10
-0.500000
20
-0.500000
30
0.000000
0
SEQEND
8
0
0
ENDBLK
0
BLOCK
8
0
2
_OBLIQUE
70
0
10
0.000000
20
0.000000
3
_OBLIQUE
0
LINE
8
0
10
-0.500000
20
-0.500000
30
0.000000
11
0.500000
21
0.500000
31
0.000000
0
ENDBLK
0
BLOCK
8
0
2
_OPEN
70
0
10
0.000000
20
0.000000
3
_OPEN
0
LINE
8
0
10
-1.000000
20
0.166667
30
0.000000
11
0.000000
21
0.000000
31
0.000000
0
LINE
8
0
10
-1.000000
20
-0.166667
30
0.000000
11
0.000000
21
0.000000
31
0.000000
0
LINE
8
0
10
0.000000
20
0.000000
30
0.000000
11
-1.000000
21
0.000000
31
0.000000
0
ENDBLK
0
BLOCK
8
0
2
_ORIGIN
70
0
10
0.000000
20
0.000000
3
_ORIGIN
0
CIRCLE
8
0
10
0.000000
20
0.000000
40
0.500000
0
LINE
8
0
10
0.000000
20
0.000000
30
0.000000
11
-1.000000
21
0.000000
31
0.000000
0
ENDBLK
0
BLOCK
8
0
2
_ORIGIN2
70
0
10
0.000000
20
0.000000
3
_ORIGIN2
0
CIRCLE
8
0
10
0.000000
20
0.000000
40
0.500000
0
CIRCLE
8
0
10
0.000000
20
0.000000
40
0.250000
0
LINE
8
0
10
-0.500000
20
0.000000
30
0.000000
11
-1.000000
21
0.000000
31
0.000000
0
ENDBLK
0
BLOCK
8
0
2
_OPEN90
70
0
10
0.000000
20
0.000000
3
_OPEN90
0
LINE
8
0
10
-0.500000
20
0.500000
30
0.000000
11
0.000000
21
0.000000
31
0.000000
0
LINE
8
0
10
0.000000
20
0.000000
30
0.000000
11
-0.500000
21
-0.500000
31
0.000000
0
LINE
8
0
10
0.000000
20
0.000000
30
0.000000
11
-1.000000
21
0.000000
31
0.000000
0
ENDBLK
0
BLOCK
8
0
2
_OPEN30
70
0
10
0.000000
20
0.000000
3
_OPEN30
0
LINE
8
0
10
-1.000000
20
0.267949
30
0.000000
11
0.000000
21
0.000000
31
0.000000
0
LINE
8
0
10
0.000000
20
0.000000
30
0.000000
11
-1.000000
21
-0.267949
31
0.000000
0
LINE
8
0
10
0.000000
20
0.000000
30
0.000000
11
-1.000000
21
0.000000
31
0.000000
0
ENDBLK
0
BLOCK
8
0
2
_DOTSMALL
70
0
10
0.000000
20
0.000000
3
_DOTSMALL
0
POLYLINE
8
0
70
1
66
 1
10
0.0
20
0.0
30
0.000000
0
VERTEX
8
0
10
0.062500
20
0.000000
30
0.000000
42
1.000000
0
VERTEX
8
0
10
-0.062500
20
0.000000
30
0.000000
42
1.000000
0
SEQEND
8
0
0
ENDBLK
0
BLOCK
8
0
2
_DOTBLANK
70
0
10
0.000000
20
0.000000
3
_DOTBLANK
0
CIRCLE
8
0
10
0.000000
20
0.000000
40
0.500000
0
LINE
8
0
10
-0.500000
20
0.000000
30
0.000000
11
-1.000000
21
0.000000
31
0.000000
0
ENDBLK
0
BLOCK
8
0
2
_SMALL
70
0
10
0.000000
20
0.000000
3
_SMALL
0
CIRCLE
8
0
10
0.000000
20
0.000000
40
0.250000
0
ENDBLK
0
BLOCK
8
0
2
_BOXBLANK
70
0
10
0.000000
20
0.000000
3
_BOXBLANK
0
LINE
8
0
10
-0.500000
20
-0.500000
30
0.000000
11
0.500000
21
-0.500000
31
0.000000
0
LINE
8
0
10
0.500000
20
-0.500000
30
0.000000
11
0.500000
21
0.500000
31
0.000000
0
LINE
8
0
10
0.500000
20
0.500000
30
0.000000
11
-0.500000
21
0.500000
31
0.000000
0
LINE
8
0
10
-0.500000
20
0.500000
30
0.000000
11
-0.500000
21
-0.500000
31
0.000000
0
LINE
8
0
10
-0.500000
20
0.000000
30
0.000000
11
-1.000000
21
0.000000
31
0.000000
0
ENDBLK
0
BLOCK
8
0
2
_BOXFILLED
70
0
10
0.000000
20
0.000000
3
_BOXFILLED
0
SOLID
8
0
10
-0.500000
20
0.500000
30
0.000000
11
0.500000
21
0.500000
31
0.000000
12
-0.500000
22
-0.500000
32
0.000000
13
0.500000
23
-0.500000
33
0.000000
0
LINE
8
0
10
-0.500000
20
0.000000
30
0.000000
11
-1.000000
21
0.000000
31
0.000000
0
ENDBLK
0
BLOCK
8
0
2
_DATUMBLANK
70
0
10
0.000000
20
0.000000
3
_DATUMBLANK
0
LINE
8
0
10
0.000000
20
0.577350
30
0.000000
11
-1.000000
21
0.000000
31
0.000000
0
LINE
8
0
10
-1.000000
20
0.000000
30
0.000000
11
0.000000
21
-0.577350
31
0.000000
0
LINE
8
0
10
0.000000
20
-0.577350
30
0.000000
11
0.000000
21
0.577350
31
0.000000
0
ENDBLK
0
BLOCK
8
0
2
_DATUMFILLED
70
0
10
0.000000
20
0.000000
3
_DATUMFILLED
0
SOLID
8
0
10
0.000000
20
0.577350
30
0.000000
11
-1.000000
21
0.000000
31
0.000000
12
0.000000
22
-0.577350
32
0.000000
13
0.000000
23
-0.577350
33
0.000000
0
ENDBLK
0
BLOCK
8
0
2
_INTEGRAL
70
0
10
0.000000
20
0.000000
3
_INTEGRAL
0
ARC
8
0
10
0.444888
20
-0.091335
40
0.454167
50
102.000000
51
168.000000
0
ARC
8
0
10
-0.444888
20
0.091335
40
0.454167
50
282.000000
51
348.000000
0
ENDBLK
0
BLOCK
8
0
2
_NONE
70
0
10
0.000000
20
0.000000
3
_NONE
0
ENDBLK
0
ENDSEC
0
SECTION
2
ENTITIES
0
POLYLINE
8
0
6
Continuous
70
0
66
 1
10
0.0
20
0.0
30
0.000000
0
VERTEX
8
0
10
-0.000000
20
-30.000000
30
0.000000
0
VERTEX
8
0
10
-0.000000
20
-35.333333
30
0.000000
0
VERTEX
8
0
10
-3.700000
20
-35.333333
30
0.000000
0
VERTEX
8
0
10
-3.700000
20
-46.300000
30
0.000000
0
VERTEX
8
0
10
-29.133333
20
-46.300000
30
0.000000
0
VERTEX
8
0
10
-29.133333
20
-50.000000
30
0.000000
0
VERTEX
8
0
10
-54.466667
20
-50.000000
30
0.000000
0
VERTEX
8
0
10
-54.466667
20
-46.300000
30
0.000000
0
VERTEX
8
0
10
-80.000000
20
-46.300000
30
0.000000
0
VERTEX
8
0
10
-80.000000
20
-30.000000
30
0.000000
0
VERTEX
8
0
10
-80.000000
20
-13.700000
30
0.000000
0
VERTEX
8
0
10
-54.466667
20
-13.700000
30
0.000000
0
VERTEX
8
0
10
-54.466667
20
-10.000000
30
0.000000
0
VERTEX
8
0
10
-29.133333
20
-10.000000
30
0.000000
0
VERTEX
8
0
10
-29.133333
20
-13.700000
30
0.000000
0
VERTEX
8
0
10
-3.700000
20
-13.700000
30
0.000000
0
VERTEX
8
0
10
-3.700000
20
-24.666667
30
0.000000
0
VERTEX
8
0
10
-0.000000
20
-24.666667
30
0.000000
0
VERTEX
8
0
10
-0.000000
20
-30.000000
30
0.000000
0
SEQEND
8
0
0
POLYLINE
8
0
6
Continuous
70
0
66
 1
10
0.0
20
0.0
30
0.000000
0
VERTEX
8
0
10
13.000000
20
0.417910
30
0.000000
0
VERTEX
8
0
10
38.433333
20
0.417910
30
0.000000
0
VERTEX
8
0
10
38.433333
20
4.117910
30
0.000000
0
VERTEX
8
0
10
63.966667
20
4.117910
30
0.000000
0
VERTEX
8
0
10
63.966667
20
0.417910
30
0.000000
0
VERTEX
8
0
10
89.300000
20
0.417910
30
0.000000
0
VERTEX
8
0
10
89.300000
20
18.051244
30
0.000000
0
VERTEX
8
0
10
93.000000
20
18.051244
30
0.000000
0
VERTEX
8
0
10
93.000000
20
30.417910
30
0.000000
0
VERTEX
8
0
10
93.000000
20
42.784577
30
0.000000
0
VERTEX
8
0
10
89.300000
20
42.784577
30
0.000000
0
VERTEX
8
0
10
89.300000
20
60.417910
30
0.000000
0
VERTEX
8
0
10
89.300000
20
70.417910
30
0.000000
0
VERTEX
8
0
10
13.000000
20
60.417910
30
0.000000
0
VERTEX
8
0
10
13.000000
20
30.417910
30
0.000000
0
VERTEX
8
0
10
13.000000
20
0.417910
30
0.000000
0
SEQEND
8
0
0
POLYLINE
8
0
6
Continuous
70
0
66
 1
10
0.0
20
0.0
30
0.000000
0
VERTEX
8
0
10
-30.000000
20
9.000000
30
0.000000
0
VERTEX
8
0
10
-80.000000
20
9.000000
30
0.000000
0
VERTEX
8
0
10
-80.000000
20
0.000000
30
0.000000
0
VERTEX
8
0
10
-54.566667
20
0.000000
30
0.000000
0
VERTEX
8
0
10
-54.566667
20
3.700000
30
0.000000
0
VERTEX
8
0
10
-29.033333
20
3.700000
30
0.000000
0
VERTEX
8
0
10
-29.033333
20
0.000000
30
0.000000
0
VERTEX
8
0
10
-3.700000
20
0.000000
30
0.000000
0
VERTEX
8
0
10
-3.700000
20
17.633333
30
0.000000
0
VERTEX
8
0
10
0.000000
20
17.633333
30
0.000000
0
VERTEX
8
0
10
0.000000
20
30.000000
30
0.000000
0
VERTEX
8
0
10
0.000000
20
42.366667
30
0.000000
0
VERTEX
8
0
10
-3.700000
20
42.366667
30
0.000000
0
VERTEX
8
0
10
-3.700000
20
60.000000
30
0.000000
0
VERTEX
8
0
10
-3.700000
20
70.000000
30
0.000000
0
VERTEX
8
0
10
-80.000000
20
60.000000
30
0.000000
0
VERTEX
8
0
10
-80.000000
20
30.000000
30
0.000000
0
VERTEX
8
0
10
-80.000000
20
19.000000
30
0.000000
0
VERTEX
8
0
10
-30.000000
20
19.000000
30
0.000000
0
VERTEX
8
0
10
-30.000000
20
9.000000
30
0.000000
0
SEQEND
8
0
0
POLYLINE
8
0
6
Continuous
70
0
66
 1
10
0.0
20
0.0
30
0.000000
0
VERTEX
8
0
10
14.281586
20
-33.841000
30
0.000000
0
VERTEX
8
0
10
14.281586
20
-48.407667
30
0.000000
0
VERTEX
8
0
10
31.814920
20
-48.407667
30
0.000000
0
VERTEX
8
0
10
31.814920
20
-44.707667
30
0.000000
0
VERTEX
8
0
10
44.281586
20
-44.707667
30
0.000000
0
VERTEX
8
0
10
56.748253
20
-44.707667
30
0.000000
0
VERTEX
8
0
10
56.748253
20
-48.407667
30
0.000000
0
VERTEX
8
0
10
74.281586
20
-48.407667
30
0.000000
0
VERTEX
8
0
10
84.281586
20
-48.407667
30
0.000000
0
VERTEX
8
0
10
84.281586
20
-8.407667
30
0.000000
0
VERTEX
8
0
10
74.281586
20
-8.407667
30
0.000000
0
VERTEX
8
0
10
56.748253
20
-8.407667
30
0.000000
0
VERTEX
8
0
10
56.748253
20
-12.107667
30
0.000000
0
VERTEX
8
0
10
44.281586
20
-12.107667
30
0.000000
0
VERTEX
8
0
10
31.814920
20
-12.107667
30
0.000000
0
VERTEX
8
0
10
31.814920
20
-8.407667
30
0.000000
0
VERTEX
8
0
10
14.281586
20
-8.407667
30
0.000000
0
VERTEX
8
0
10
14.281586
20
-22.974333
30
0.000000
0
VERTEX
8
0
10
17.981586
20
-22.974333
30
0.000000
0
VERTEX
8
0
10
17.981586
20
-28.407667
30
0.000000
0
VERTEX
8
0
10
17.981586
20
-33.841000
30
0.000000
0
VERTEX
8
0
10
14.281586
20
-33.841000
30
0.000000
0
SEQEND
8
0
0
POLYLINE
8
0
6
Continuous
70
0
66
 1
10
0.0
20
0.0
30
0.000000
0
VERTEX
8
0
10
112.000000
20
-10.000000
30
0.000000
0
VERTEX
8
0
10
127.433333
20
-10.000000
30
0.000000
0
VERTEX
8
0
10
127.433333
20
-6.300000
30
0.000000
0
VERTEX
8
0
10
142.916667
20
-6.300000
30
0.000000
0
VERTEX
8
0
10
142.916667
20
-10.000000
30
0.000000
0
VERTEX
8
0
10
158.300000
20
-10.000000
30
0.000000
0
VERTEX
8
0
10
158.300000
20
0.916667
30
0.000000
0
VERTEX
8
0
10
162.000000
20
0.916667
30
0.000000
0
VERTEX
8
0
10
162.000000
20
10.000000
30
0.000000
0
VERTEX
8
0
10
162.000000
20
19.083333
30
0.000000
0
VERTEX
8
0
10
158.300000
20
19.083333
30
0.000000
0
VERTEX
8
0
10
158.300000
20
30.000000
30
0.000000
0
VERTEX
8
0
10
158.300000
20
36.250000
30
0.000000
0
VERTEX
8
0
10
112.000000
20
30.000000
30
0.000000
0
VERTEX
8
0
10
112.000000
20
10.000000
30
0.000000
0
VERTEX
8
0
10
112.000000
20
-10.000000
30
0.000000
0
SEQEND
8
0
0
POLYLINE
8
0
6
Continuous
70
0
66
 1
10
0.0
20
0.0
30
0.000000
0
VERTEX
8
0
10
168.404015
20
36.410161
30
0.000000
0
VERTEX
8
0
10
168.404015
20
30.160161
30
0.000000
0
VERTEX
8
0
10
168.404015
20
19.293494
30
0.000000
0
VERTEX
8
0
10
172.104015
20
19.293494
30
0.000000
0
VERTEX
8
0
10
172.104015
20
10.160161
30
0.000000
0
VERTEX
8
0
10
172.104015
20
1.026828
30
0.000000
0
VERTEX
8
0
10
168.404015
20
1.026828
30
0.000000
0
VERTEX
8
0
10
168.404015
20
-9.839839
30
0.000000
0
VERTEX
8
0
10
179.637348
20
-9.839839
30
0.000000
0
VERTEX
8
0
10
179.637348
20
-6.139839
30
0.000000
0
VERTEX
8
0
10
183.404015
20
-6.139839
30
0.000000
0
VERTEX
8
0
10
187.170681
20
-6.139839
30
0.000000
0
VERTEX
8
0
10
187.170681
20
-9.839839
30
0.000000
0
VERTEX
8
0
10
198.404015
20
-9.839839
30
0.000000
0
VERTEX
8
0
10
198.404015
20
1.026828
30
0.000000
0
VERTEX
8
0
10
194.704015
20
1.026828
30
0.000000
0
VERTEX
8
0
10
194.704015
20
10.160161
30
0.000000
0
VERTEX
8
0
10
194.704015
20
19.293494
30
0.000000
0
VERTEX
8
0
10
198.404015
20
19.293494
30
0.000000
0
VERTEX
8
0
10
198.404015
20
30.160161
30
0.000000
0
VERTEX
8
0
10
198.404015
20
36.410161
30
0.000000
0
VERTEX
8
0
10
168.404015
20
36.410161
30
0.000000
0
SEQEND
8
0
0
LINE
8
0
6
Continuous
10
162.000000
20
-35.000000
30
0.000000
11
162.000000
21
-38.716667
31
0.000000
0
LINE
8
0
6
Continuous
10
162.000000
20
-38.716667
30
0.000000
11
158.300000
21
-38.716667
31
0.000000
0
LINE
8
0
6
Continuous
10
158.300000
20
-38.716667
30
0.000000
11
158.300000
21
-46.300000
31
0.000000
0
LINE
8
0
6
Continuous
10
158.300000
20
-46.300000
30
0.000000
11
142.866667
21
-46.300000
31
0.000000
0
LINE
8
0
6
Continuous
10
142.866667
20
-46.300000
30
0.000000
11
142.866667
21
-50.000000
31
0.000000
0
LINE
8
0
6
Continuous
10
142.866667
20
-50.000000
30
0.000000
11
127.483333
21
-50.000000
31
0.000000
0
LINE
8
0
6
Continuous
10
127.483333
20
-50.000000
30
0.000000
11
127.483333
21
-46.300000
31
0.000000
0
LINE
8
0
6
Continuous
10
127.483333
20
-46.300000
30
0.000000
11
112.000000
21
-46.300000
31
0.000000
0
LINE
8
0
6
Continuous
10
112.000000
20
-35.300000
30
0.000000
11
112.000000
21
-23.700000
31
0.000000
0
LINE
8
0
6
Continuous
10
112.000000
20
-23.700000
30
0.000000
11
127.483333
21
-23.700000
31
0.000000
0
LINE
8
0
6
Continuous
10
127.483333
20
-23.700000
30
0.000000
11
127.483333
21
-20.000000
31
0.000000
0
LINE
8
0
6
Continuous
10
127.483333
20
-20.000000
30
0.000000
11
142.866667
21
-20.000000
31
0.000000
0
LINE
8
0
6
Continuous
10
142.866667
20
-20.000000
30
0.000000
11
142.866667
21
-23.700000
31
0.000000
0
LINE
8
0
6
Continuous
10
142.866667
20
-23.700000
30
0.000000
11
158.300000
21
-23.700000
31
0.000000
0
LINE
8
0
6
Continuous
10
158.300000
20
-23.700000
30
0.000000
11
158.300000
21
-31.283333
31
0.000000
0
LINE
8
0
6
Continuous
10
158.300000
20
-31.283333
30
0.000000
11
162.000000
21
-31.283333
31
0.000000
0
LINE
8
0
6
Continuous
10
162.000000
20
-31.283333
30
0.000000
11
162.000000
21
-35.000000
31
0.000000
0
LINE
8
0
6
Continuous
10
112.000000
20
-46.300000
30
0.000000
11
112.000000
21
-42.300000
31
0.000000
0
LINE
8
0
6
Continuous
10
112.000000
20
-42.300000
30
0.000000
11
133.000000
21
-42.300000
31
0.000000
0
LINE
8
0
6
Continuous
10
133.000000
20
-42.300000
30
0.000000
11
133.000000
21
-35.300000
31
0.000000
0
LINE
8
0
6
Continuous
10
133.000000
20
-35.300000
30
0.000000
11
112.000000
21
-35.300000
31
0.000000
0
ENDSEC
0
EOF
