0
SECTION
2
HEADER
0
ENDSEC
0
SECTION
2
TABLES
0
TABLE
2
LTYPE
0
LTYPE
2
Continuous
70
0
3
Solid line
72
65
73
0
40
0.000000
0
ENDTAB
0
TABLE
2
LAYER
0
LAYER
2
0
70
0
62
7
6
Continuous
0
ENDTAB
0
TABLE
2
STYLE
0
STYLE
2
Standard
3
Arial
70
0
71
0
40
5.000000
41
1.000000
42
5.000000
50
0.000000
0
ENDTAB
0
TABLE
2
DIMSTYLE
0
DIMSTYLE
2
Standard
70
0
3

4

5

6
CLOSEDFILLED
7
CLOSEDFILLED
40
1.000000
41
2.000000
42
1.000000
43
5.000000
44
2.000000
45
0.000000
46
0.000000
47
0.000000
48
0.000000
140
5.000000
141
2.000000
142
0.000000
143
25.400000
144
1.000000
145
0.000000
146
1.000000
147
2.000000
71
0
72
0
73
0
74
1
75
0
76
0
77
0
78
0
170
0
171
4
172
0
173
1
174
0
175
0
176
0
177
-2
178
-2
271
4
272
4
273
1
274
4
275
0
280
0
281
0
282
0
283
1
288
0
0
ENDTAB
0
ENDSEC
0
SECTION
2
BLOCKS
0
BLOCK
8
0
2
_CLOSEDFILLED
70
0
10
0.000000
20
0.000000
3
_CLOSEDFILLED
0
SOLID
8
0
10
-1.000000
20
0.166667
30
0.000000
11
-1.000000
21
-0.166667
31
0.000000
12
0.000000
22
0.000000
32
0.000000
13
0.000000
23
0.000000
33
0.000000
0
ENDBLK
0
BLOCK
8
0
2
_CLOSEDBLANK
70
0
10
0.000000
20
0.000000
3
_CLOSEDBLANK
0
LINE
8
0
10
-1.000000
20
0.166667
30
0.000000
11
0.000000
21
0.000000
31
0.000000
0
LINE
8
0
10
0.000000
20
0.000000
30
0.000000
11
-1.000000
21
-0.166667
31
0.000000
0
LINE
8
0
10
-1.000000
20
0.166667
30
0.000000
11
-1.000000
21
-0.166667
31
0.000000
0
ENDBLK
0
BLOCK
8
0
2
_CLOSED
70
0
10
0.000000
20
0.000000
3
_CLOSED
0
LINE
8
0
10
-1.000000
20
0.166667
30
0.000000
11
0.000000
21
0.000000
31
0.000000
0
LINE
8
0
10
0.000000
20
0.000000
30
0.000000
11
-1.000000
21
-0.166667
31
0.000000
0
LINE
8
0
10
-1.000000
20
0.166667
30
0.000000
11
-1.000000
21
-0.166667
31
0.000000
0
LINE
8
0
10
0.000000
20
0.000000
30
0.000000
11
-1.000000
21
0.000000
31
0.000000
0
ENDBLK
0
BLOCK
8
0
2
_DOT
70
0
10
0.000000
20
0.000000
3
_DOT
0
POLYLINE
8
0
70
1
66
 1
10
0.0
20
0.0
30
0.000000
0
VERTEX
8
0
10
0.250000
20
0.000000
30
0.000000
42
1.000000
0
VERTEX
8
0
10
-0.250000
20
0.000000
30
0.000000
42
1.000000
0
SEQEND
8
0
0
LINE
8
0
10
-0.500000
20
0.000000
30
0.000000
11
-1.000000
21
0.000000
31
0.000000
0
ENDBLK
0
BLOCK
8
0
2
_ARCHTICK
70
0
10
0.000000
20
0.000000
3
_ARCHTICK
0
POLYLINE
8
0
70
0
66
 1
10
0.0
20
0.0
30
0.000000
0
VERTEX
8
0
10
0.500000
20
0.500000
30
0.000000
0
VERTEX
8
0
10
-0.500000
20
-0.500000
30
0.000000
0
SEQEND
8
0
0
ENDBLK
0
BLOCK
8
0
2
_OBLIQUE
70
0
10
0.000000
20
0.000000
3
_OBLIQUE
0
LINE
8
0
10
-0.500000
20
-0.500000
30
0.000000
11
0.500000
21
0.500000
31
0.000000
0
ENDBLK
0
BLOCK
8
0
2
_OPEN
70
0
10
0.000000
20
0.000000
3
_OPEN
0
LINE
8
0
10
-1.000000
20
0.166667
30
0.000000
11
0.000000
21
0.000000
31
0.000000
0
LINE
8
0
10
-1.000000
20
-0.166667
30
0.000000
11
0.000000
21
0.000000
31
0.000000
0
LINE
8
0
10
0.000000
20
0.000000
30
0.000000
11
-1.000000
21
0.000000
31
0.000000
0
ENDBLK
0
BLOCK
8
0
2
_ORIGIN
70
0
10
0.000000
20
0.000000
3
_ORIGIN
0
CIRCLE
8
0
10
0.000000
20
0.000000
40
0.500000
0
LINE
8
0
10
0.000000
20
0.000000
30
0.000000
11
-1.000000
21
0.000000
31
0.000000
0
ENDBLK
0
BLOCK
8
0
2
_ORIGIN2
70
0
10
0.000000
20
0.000000
3
_ORIGIN2
0
CIRCLE
8
0
10
0.000000
20
0.000000
40
0.500000
0
CIRCLE
8
0
10
0.000000
20
0.000000
40
0.250000
0
LINE
8
0
10
-0.500000
20
0.000000
30
0.000000
11
-1.000000
21
0.000000
31
0.000000
0
ENDBLK
0
BLOCK
8
0
2
_OPEN90
70
0
10
0.000000
20
0.000000
3
_OPEN90
0
LINE
8
0
10
-0.500000
20
0.500000
30
0.000000
11
0.000000
21
0.000000
31
0.000000
0
LINE
8
0
10
0.000000
20
0.000000
30
0.000000
11
-0.500000
21
-0.500000
31
0.000000
0
LINE
8
0
10
0.000000
20
0.000000
30
0.000000
11
-1.000000
21
0.000000
31
0.000000
0
ENDBLK
0
BLOCK
8
0
2
_OPEN30
70
0
10
0.000000
20
0.000000
3
_OPEN30
0
LINE
8
0
10
-1.000000
20
0.267949
30
0.000000
11
0.000000
21
0.000000
31
0.000000
0
LINE
8
0
10
0.000000
20
0.000000
30
0.000000
11
-1.000000
21
-0.267949
31
0.000000
0
LINE
8
0
10
0.000000
20
0.000000
30
0.000000
11
-1.000000
21
0.000000
31
0.000000
0
ENDBLK
0
BLOCK
8
0
2
_DOTSMALL
70
0
10
0.000000
20
0.000000
3
_DOTSMALL
0
POLYLINE
8
0
70
1
66
 1
10
0.0
20
0.0
30
0.000000
0
VERTEX
8
0
10
0.062500
20
0.000000
30
0.000000
42
1.000000
0
VERTEX
8
0
10
-0.062500
20
0.000000
30
0.000000
42
1.000000
0
SEQEND
8
0
0
ENDBLK
0
BLOCK
8
0
2
_DOTBLANK
70
0
10
0.000000
20
0.000000
3
_DOTBLANK
0
CIRCLE
8
0
10
0.000000
20
0.000000
40
0.500000
0
LINE
8
0
10
-0.500000
20
0.000000
30
0.000000
11
-1.000000
21
0.000000
31
0.000000
0
ENDBLK
0
BLOCK
8
0
2
_SMALL
70
0
10
0.000000
20
0.000000
3
_SMALL
0
CIRCLE
8
0
10
0.000000
20
0.000000
40
0.250000
0
ENDBLK
0
BLOCK
8
0
2
_BOXBLANK
70
0
10
0.000000
20
0.000000
3
_BOXBLANK
0
LINE
8
0
10
-0.500000
20
-0.500000
30
0.000000
11
0.500000
21
-0.500000
31
0.000000
0
LINE
8
0
10
0.500000
20
-0.500000
30
0.000000
11
0.500000
21
0.500000
31
0.000000
0
LINE
8
0
10
0.500000
20
0.500000
30
0.000000
11
-0.500000
21
0.500000
31
0.000000
0
LINE
8
0
10
-0.500000
20
0.500000
30
0.000000
11
-0.500000
21
-0.500000
31
0.000000
0
LINE
8
0
10
-0.500000
20
0.000000
30
0.000000
11
-1.000000
21
0.000000
31
0.000000
0
ENDBLK
0
BLOCK
8
0
2
_BOXFILLED
70
0
10
0.000000
20
0.000000
3
_BOXFILLED
0
SOLID
8
0
10
-0.500000
20
0.500000
30
0.000000
11
0.500000
21
0.500000
31
0.000000
12
-0.500000
22
-0.500000
32
0.000000
13
0.500000
23
-0.500000
33
0.000000
0
LINE
8
0
10
-0.500000
20
0.000000
30
0.000000
11
-1.000000
21
0.000000
31
0.000000
0
ENDBLK
0
BLOCK
8
0
2
_DATUMBLANK
70
0
10
0.000000
20
0.000000
3
_DATUMBLANK
0
LINE
8
0
10
0.000000
20
0.577350
30
0.000000
11
-1.000000
21
0.000000
31
0.000000
0
LINE
8
0
10
-1.000000
20
0.000000
30
0.000000
11
0.000000
21
-0.577350
31
0.000000
0
LINE
8
0
10
0.000000
20
-0.577350
30
0.000000
11
0.000000
21
0.577350
31
0.000000
0
ENDBLK
0
BLOCK
8
0
2
_DATUMFILLED
70
0
10
0.000000
20
0.000000
3
_DATUMFILLED
0
SOLID
8
0
10
0.000000
20
0.577350
30
0.000000
11
-1.000000
21
0.000000
31
0.000000
12
0.000000
22
-0.577350
32
0.000000
13
0.000000
23
-0.577350
33
0.000000
0
ENDBLK
0
BLOCK
8
0
2
_INTEGRAL
70
0
10
0.000000
20
0.000000
3
_INTEGRAL
0
ARC
8
0
10
0.444888
20
-0.091335
40
0.454167
50
102.000000
51
168.000000
0
ARC
8
0
10
-0.444888
20
0.091335
40
0.454167
50
282.000000
51
348.000000
0
ENDBLK
0
BLOCK
8
0
2
_NONE
70
0
10
0.000000
20
0.000000
3
_NONE
0
ENDBLK
0
ENDSEC
0
SECTION
2
ENTITIES
0
POLYLINE
8
0
6
Continuous
70
0
66
 1
10
0.0
20
0.0
30
0.000000
0
VERTEX
8
0
10
0.000000
20
-104.900000
30
0.000000
0
VERTEX
8
0
10
4.100000
20
-104.900000
30
0.000000
0
VERTEX
8
0
10
15.310000
20
-104.900000
30
0.000000
0
VERTEX
8
0
10
15.310000
20
-109.000000
30
0.000000
0
VERTEX
8
0
10
26.370000
20
-109.000000
30
0.000000
0
VERTEX
8
0
10
26.370000
20
-104.900000
30
0.000000
0
VERTEX
8
0
10
37.630000
20
-104.900000
30
0.000000
0
VERTEX
8
0
10
37.630000
20
-109.000000
30
0.000000
0
VERTEX
8
0
10
48.690000
20
-109.000000
30
0.000000
0
VERTEX
8
0
10
48.690000
20
-104.900000
30
0.000000
0
VERTEX
8
0
10
59.900000
20
-104.900000
30
0.000000
0
VERTEX
8
0
10
64.000000
20
-104.900000
30
0.000000
0
SEQEND
8
0
0
POLYLINE
8
0
6
Continuous
70
0
66
 1
10
0.0
20
0.0
30
0.000000
0
VERTEX
8
0
10
0.000000
20
-104.900000
30
0.000000
0
VERTEX
8
0
10
0.000000
20
-92.771429
30
0.000000
0
VERTEX
8
0
10
4.100000
20
-92.771429
30
0.000000
0
VERTEX
8
0
10
4.100000
20
-80.642857
30
0.000000
0
VERTEX
8
0
10
0.000000
20
-80.642857
30
0.000000
0
VERTEX
8
0
10
0.000000
20
-68.514286
30
0.000000
0
VERTEX
8
0
10
4.100000
20
-68.514286
30
0.000000
0
VERTEX
8
0
10
4.100000
20
-56.385714
30
0.000000
0
VERTEX
8
0
10
0.000000
20
-56.385714
30
0.000000
0
VERTEX
8
0
10
0.000000
20
-44.257143
30
0.000000
0
VERTEX
8
0
10
4.100000
20
-44.257143
30
0.000000
0
VERTEX
8
0
10
4.100000
20
-32.128571
30
0.000000
0
VERTEX
8
0
10
0.000000
20
-32.128571
30
0.000000
0
VERTEX
8
0
10
0.000000
20
-20.000000
30
0.000000
0
SEQEND
8
0
0
POLYLINE
8
0
6
Continuous
70
0
66
 1
10
0.0
20
0.0
30
0.000000
0
VERTEX
8
0
10
64.000000
20
-104.900000
30
0.000000
0
VERTEX
8
0
10
64.000000
20
-92.771429
30
0.000000
0
VERTEX
8
0
10
59.900000
20
-92.771429
30
0.000000
0
VERTEX
8
0
10
59.900000
20
-80.642857
30
0.000000
0
VERTEX
8
0
10
64.000000
20
-80.642857
30
0.000000
0
VERTEX
8
0
10
64.000000
20
-68.514286
30
0.000000
0
VERTEX
8
0
10
59.900000
20
-68.514286
30
0.000000
0
VERTEX
8
0
10
59.900000
20
-56.385714
30
0.000000
0
VERTEX
8
0
10
64.000000
20
-56.385714
30
0.000000
0
VERTEX
8
0
10
64.000000
20
-44.257143
30
0.000000
0
VERTEX
8
0
10
59.900000
20
-44.257143
30
0.000000
0
VERTEX
8
0
10
59.900000
20
-32.128571
30
0.000000
0
VERTEX
8
0
10
64.000000
20
-32.128571
30
0.000000
0
VERTEX
8
0
10
64.000000
20
-20.000000
30
0.000000
0
SEQEND
8
0
0
POLYLINE
8
0
6
Continuous
70
0
66
 1
10
0.0
20
0.0
30
0.000000
0
VERTEX
8
0
10
0.000000
20
-20.000000
30
0.000000
0
VERTEX
8
0
10
64.000000
20
-20.000000
30
0.000000
0
SEQEND
8
0
0
POLYLINE
8
0
6
Continuous
70
0
66
 1
10
0.0
20
0.0
30
0.000000
0
VERTEX
8
0
10
0.000000
20
0.000000
30
0.000000
0
VERTEX
8
0
10
24.263636
20
0.000000
30
0.000000
0
VERTEX
8
0
10
24.263636
20
4.100000
30
0.000000
0
VERTEX
8
0
10
44.427273
20
4.100000
30
0.000000
0
VERTEX
8
0
10
44.427273
20
0.000000
30
0.000000
0
VERTEX
8
0
10
64.590909
20
0.000000
30
0.000000
0
VERTEX
8
0
10
64.590909
20
4.100000
30
0.000000
0
VERTEX
8
0
10
84.754545
20
4.100000
30
0.000000
0
VERTEX
8
0
10
84.754545
20
0.000000
30
0.000000
0
VERTEX
8
0
10
104.918182
20
0.000000
30
0.000000
0
VERTEX
8
0
10
104.918182
20
4.100000
30
0.000000
0
VERTEX
8
0
10
125.081818
20
4.100000
30
0.000000
0
VERTEX
8
0
10
125.081818
20
0.000000
30
0.000000
0
VERTEX
8
0
10
145.245455
20
0.000000
30
0.000000
0
VERTEX
8
0
10
145.245455
20
4.100000
30
0.000000
0
VERTEX
8
0
10
165.409091
20
4.100000
30
0.000000
0
VERTEX
8
0
10
165.409091
20
0.000000
30
0.000000
0
VERTEX
8
0
10
185.572727
20
0.000000
30
0.000000
0
VERTEX
8
0
10
185.572727
20
4.100000
30
0.000000
0
VERTEX
8
0
10
205.736364
20
4.100000
30
0.000000
0
VERTEX
8
0
10
205.736364
20
0.000000
30
0.000000
0
VERTEX
8
0
10
225.900000
20
0.000000
30
0.000000
0
VERTEX
8
0
10
230.000000
20
0.000000
30
0.000000
0
SEQEND
8
0
0
POLYLINE
8
0
6
Continuous
70
0
66
 1
10
0.0
20
0.0
30
0.000000
0
VERTEX
8
0
10
0.000000
20
64.000000
30
0.000000
0
VERTEX
8
0
10
24.263636
20
64.000000
30
0.000000
0
VERTEX
8
0
10
24.263636
20
59.900000
30
0.000000
0
VERTEX
8
0
10
44.427273
20
59.900000
30
0.000000
0
VERTEX
8
0
10
44.427273
20
64.000000
30
0.000000
0
VERTEX
8
0
10
64.590909
20
64.000000
30
0.000000
0
VERTEX
8
0
10
64.590909
20
59.900000
30
0.000000
0
VERTEX
8
0
10
84.754545
20
59.900000
30
0.000000
0
VERTEX
8
0
10
84.754545
20
64.000000
30
0.000000
0
VERTEX
8
0
10
104.918182
20
64.000000
30
0.000000
0
VERTEX
8
0
10
104.918182
20
59.900000
30
0.000000
0
VERTEX
8
0
10
125.081818
20
59.900000
30
0.000000
0
VERTEX
8
0
10
125.081818
20
64.000000
30
0.000000
0
VERTEX
8
0
10
145.245455
20
64.000000
30
0.000000
0
VERTEX
8
0
10
145.245455
20
59.900000
30
0.000000
0
VERTEX
8
0
10
165.409091
20
59.900000
30
0.000000
0
VERTEX
8
0
10
165.409091
20
64.000000
30
0.000000
0
VERTEX
8
0
10
185.572727
20
64.000000
30
0.000000
0
VERTEX
8
0
10
185.572727
20
59.900000
30
0.000000
0
VERTEX
8
0
10
205.736364
20
59.900000
30
0.000000
0
VERTEX
8
0
10
205.736364
20
64.000000
30
0.000000
0
VERTEX
8
0
10
225.900000
20
64.000000
30
0.000000
0
VERTEX
8
0
10
230.000000
20
64.000000
30
0.000000
0
SEQEND
8
0
0
POLYLINE
8
0
6
Continuous
70
0
66
 1
10
0.0
20
0.0
30
0.000000
0
VERTEX
8
0
10
0.000000
20
0.000000
30
0.000000
0
VERTEX
8
0
10
0.000000
20
15.260000
30
0.000000
0
VERTEX
8
0
10
4.100000
20
15.260000
30
0.000000
0
VERTEX
8
0
10
4.100000
20
26.420000
30
0.000000
0
VERTEX
8
0
10
0.000000
20
26.420000
30
0.000000
0
VERTEX
8
0
10
0.000000
20
37.580000
30
0.000000
0
VERTEX
8
0
10
4.100000
20
37.580000
30
0.000000
0
VERTEX
8
0
10
4.100000
20
48.740000
30
0.000000
0
VERTEX
8
0
10
0.000000
20
48.740000
30
0.000000
0
VERTEX
8
0
10
0.000000
20
59.900000
30
0.000000
0
VERTEX
8
0
10
0.000000
20
64.000000
30
0.000000
0
SEQEND
8
0
0
POLYLINE
8
0
6
Continuous
70
0
66
 1
10
0.0
20
0.0
30
0.000000
0
VERTEX
8
0
10
230.000000
20
0.000000
30
0.000000
0
VERTEX
8
0
10
230.000000
20
15.260000
30
0.000000
0
VERTEX
8
0
10
225.900000
20
15.260000
30
0.000000
0
VERTEX
8
0
10
225.900000
20
26.420000
30
0.000000
0
VERTEX
8
0
10
230.000000
20
26.420000
30
0.000000
0
VERTEX
8
0
10
230.000000
20
37.580000
30
0.000000
0
VERTEX
8
0
10
225.900000
20
37.580000
30
0.000000
0
VERTEX
8
0
10
225.900000
20
48.740000
30
0.000000
0
VERTEX
8
0
10
230.000000
20
48.740000
30
0.000000
0
VERTEX
8
0
10
230.000000
20
59.900000
30
0.000000
0
VERTEX
8
0
10
230.000000
20
64.000000
30
0.000000
0
SEQEND
8
0
0
CIRCLE
8
0
6
Continuous
10
32.200000
20
32.200000
40
14.000000
0
CIRCLE
8
0
6
Continuous
10
87.200000
20
32.200000
40
14.000000
0
CIRCLE
8
0
6
Continuous
10
142.200000
20
32.200000
40
14.000000
0
CIRCLE
8
0
6
Continuous
10
197.200000
20
32.200000
40
14.000000
0
POLYLINE
8
0
6
Continuous
70
0
66
 1
10
0.0
20
0.0
30
0.000000
0
VERTEX
8
0
10
4.100000
20
84.100000
30
0.000000
0
VERTEX
8
0
10
24.313636
20
84.100000
30
0.000000
0
VERTEX
8
0
10
24.313636
20
80.000000
30
0.000000
0
VERTEX
8
0
10
44.377273
20
80.000000
30
0.000000
0
VERTEX
8
0
10
44.377273
20
84.100000
30
0.000000
0
VERTEX
8
0
10
64.640909
20
84.100000
30
0.000000
0
VERTEX
8
0
10
64.640909
20
80.000000
30
0.000000
0
VERTEX
8
0
10
84.704545
20
80.000000
30
0.000000
0
VERTEX
8
0
10
84.704545
20
84.100000
30
0.000000
0
VERTEX
8
0
10
104.968182
20
84.100000
30
0.000000
0
VERTEX
8
0
10
104.968182
20
80.000000
30
0.000000
0
VERTEX
8
0
10
125.031818
20
80.000000
30
0.000000
0
VERTEX
8
0
10
125.031818
20
84.100000
30
0.000000
0
VERTEX
8
0
10
145.295455
20
84.100000
30
0.000000
0
VERTEX
8
0
10
145.295455
20
80.000000
30
0.000000
0
VERTEX
8
0
10
165.359091
20
80.000000
30
0.000000
0
VERTEX
8
0
10
165.359091
20
84.100000
30
0.000000
0
VERTEX
8
0
10
185.622727
20
84.100000
30
0.000000
0
VERTEX
8
0
10
185.622727
20
80.000000
30
0.000000
0
VERTEX
8
0
10
205.686364
20
80.000000
30
0.000000
0
VERTEX
8
0
10
205.686364
20
84.100000
30
0.000000
0
VERTEX
8
0
10
225.900000
20
84.100000
30
0.000000
0
SEQEND
8
0
0
POLYLINE
8
0
6
Continuous
70
0
66
 1
10
0.0
20
0.0
30
0.000000
0
VERTEX
8
0
10
225.900000
20
84.100000
30
0.000000
0
VERTEX
8
0
10
225.900000
20
96.278571
30
0.000000
0
VERTEX
8
0
10
230.000000
20
96.278571
30
0.000000
0
VERTEX
8
0
10
230.000000
20
108.307143
30
0.000000
0
VERTEX
8
0
10
225.900000
20
108.307143
30
0.000000
0
VERTEX
8
0
10
225.900000
20
120.535714
30
0.000000
0
VERTEX
8
0
10
230.000000
20
120.535714
30
0.000000
0
VERTEX
8
0
10
230.000000
20
132.564286
30
0.000000
0
VERTEX
8
0
10
225.900000
20
132.564286
30
0.000000
0
VERTEX
8
0
10
225.900000
20
144.792857
30
0.000000
0
VERTEX
8
0
10
230.000000
20
144.792857
30
0.000000
0
VERTEX
8
0
10
230.000000
20
156.821429
30
0.000000
0
VERTEX
8
0
10
225.900000
20
156.821429
30
0.000000
0
VERTEX
8
0
10
225.900000
20
169.000000
30
0.000000
0
SEQEND
8
0
0
POLYLINE
8
0
6
Continuous
70
0
66
 1
10
0.0
20
0.0
30
0.000000
0
VERTEX
8
0
10
4.100000
20
84.100000
30
0.000000
0
VERTEX
8
0
10
4.100000
20
96.278571
30
0.000000
0
VERTEX
8
0
10
0.000000
20
96.278571
30
0.000000
0
VERTEX
8
0
10
0.000000
20
108.307143
30
0.000000
0
VERTEX
8
0
10
4.100000
20
108.307143
30
0.000000
0
VERTEX
8
0
10
4.100000
20
120.535714
30
0.000000
0
VERTEX
8
0
10
0.000000
20
120.535714
30
0.000000
0
VERTEX
8
0
10
0.000000
20
132.564286
30
0.000000
0
VERTEX
8
0
10
4.100000
20
132.564286
30
0.000000
0
VERTEX
8
0
10
4.100000
20
144.792857
30
0.000000
0
VERTEX
8
0
10
0.000000
20
144.792857
30
0.000000
0
VERTEX
8
0
10
0.000000
20
156.821429
30
0.000000
0
VERTEX
8
0
10
4.100000
20
156.821429
30
0.000000
0
VERTEX
8
0
10
4.100000
20
169.000000
30
0.000000
0
SEQEND
8
0
0
POLYLINE
8
0
6
Continuous
70
0
66
 1
10
0.0
20
0.0
30
0.000000
0
VERTEX
8
0
10
4.100000
20
169.000000
30
0.000000
0
VERTEX
8
0
10
225.900000
20
169.000000
30
0.000000
0
SEQEND
8
0
0
ENDSEC
0
EOF
