  0
SECTION
  2
HEADER
  9
$ACADVER
  1
AC1004
  9
$INSBASE
 10
0.0
 20
0.0
  9
$EXTMIN
 10
1.000000000000000E+20
 20
1.000000000000000E+20
  9
$EXTMAX
 10
-1.000000000000000E+20
 20
-1.000000000000000E+20
  9
$LIMMIN
 10
0.0
 20
0.0
  9
$LIMMAX
 10
12.0
 20
9.0
  9
$ORTHOMODE
 70
     0
  9
$REGENMODE
 70
     1
  9
$FILLMODE
 70
     1
  9
$QTEXTMODE
 70
     0
  9
$DRAGMODE
 70
     2
  9
$LTSCALE
 40
1.0
  9
$OSMODE
 70
    37
  9
$ATTMODE
 70
     1
  9
$TEXTSIZE
 40
5.0
  9
$TRACEWID
 40
0.05
  9
$TEXTSTYLE
  7
STANDARD
  9
$CLAYER
  8
0
  9
$CELTYPE
  6
BYBLOCK
  9
$CECOLOR
 62
   256
  9
$DIMSCALE
 40
1.0
  9
$DIMASZ
 40
0.18
  9
$DIMEXO
 40
0.0625
  9
$DIMDLI
 40
0.38
  9
$DIMRND
 40
0.0
  9
$DIMDLE
 40
0.0
  9
$DIMEXE
 40
0.18
  9
$DIMTP
 40
0.0
  9
$DIMTM
 40
0.0
  9
$DIMTXT
 40
0.18
  9
$DIMCEN
 40
0.09
  9
$DIMTSZ
 40
0.0
  9
$DIMTOL
 70
     0
  9
$DIMLIM
 70
     0
  9
$DIMTIH
 70
     1
  9
$DIMTOH
 70
     1
  9
$DIMSE1
 70
     0
  9
$DIMSE2
 70
     0
  9
$DIMTAD
 70
     0
  9
$DIMZIN
 70
     0
  9
$DIMBLK
  1

  9
$DIMASO
 70
     1
  9
$DIMSHO
 70
     1
  9
$DIMPOST
  1

  9
$DIMAPOST
  1

  9
$DIMALT
 70
     0
  9
$DIMALTD
 70
     2
  9
$DIMALTF
 40
25.4
  9
$DIMLFAC
 40
1.0
  9
$DIMTOFL
 70
     0
  9
$DIMTVP
 40
0.0
  9
$DIMTIX
 70
     0
  9
$DIMSOXD
 70
     0
  9
$DIMSAH
 70
     0
  9
$DIMBLK1
  1

  9
$DIMBLK2
  1

  9
$LUNITS
 70
     2
  9
$LUPREC
 70
     4
  9
$SKETCHINC
 40
0.1
  9
$FILLETRAD
 40
0.5
  9
$AUNITS
 70
     0
  9
$AUPREC
 70
     0
  9
$MENU
  1
.
  9
$ELEVATION
 40
0.0
  9
$THICKNESS
 40
0.0
  9
$LIMCHECK
 70
     0
  9
$CHAMFERA
 40
0.0
  9
$CHAMFERB
 40
0.0
  9
$SKPOLY
 70
     0
  9
$TDCREATE
 40
2458831.602515648
  9
$TDUPDATE
 40
2458831.602515833
  9
$TDINDWG
 40
0.0000000116
  9
$TDUSRTIMER
 40
0.0000000116
  9
$USRTIMER
 70
     1
  9
$ANGBASE
 50
0.0
  9
$ANGDIR
 70
     0
  9
$PDMODE
 70
     0
  9
$PDSIZE
 40
0.0
  9
$PLINEWID
 40
0.0
  9
$COORDS
 70
     1
  9
$SPLFRAME
 70
     0
  9
$SPLINETYPE
 70
     6
  9
$SPLINESEGS
 70
     8
  9
$ATTDIA
 70
     0
  9
$ATTREQ
 70
     1
  9
$SURFTAB1
 70
     6
  9
$SURFTAB2
 70
     6
  9
$SURFTYPE
 70
     6
  9
$SURFU
 70
     6
  9
$SURFV
 70
     6
  9
$UCSNAME
  2

  9
$UCSORG
 10
0.0
 20
0.0
 30
0.0
  9
$UCSXDIR
 10
1.0
 20
0.0
 30
0.0
  9
$UCSYDIR
 10
0.0
 20
1.0
 30
0.0
  9
$USERI1
 70
     0
  9
$USERI2
 70
     0
  9
$USERI3
 70
     0
  9
$USERI4
 70
     0
  9
$USERI5
 70
     0
  9
$USERR1
 40
0.0
  9
$USERR2
 40
0.0
  9
$USERR3
 40
0.0
  9
$USERR4
 40
0.0
  9
$USERR5
 40
0.0
  9
$WORLDVIEW
 70
     1
  0
ENDSEC
  0
SECTION
  2
TABLES
  0
TABLE
  2
LTYPE
 70
     1
  0
LTYPE
  2
CONTINUOUS
 70
     0
  3
Solid line
 72
    65
 73
     0
 40
0.0
  0
ENDTAB
  0
TABLE
  2
LAYER
 70
     1
  0
LAYER
  2
0
 70
     0
 62
     7
  6
CONTINUOUS
  0
ENDTAB
  0
TABLE
  2
STYLE
 70
     1
  0
STYLE
  2
STANDARD
 70
     0
 40
5.0
 41
1.0
 50
0.0
 71
     0
 42
5.0
  3
Arial
  4

  0
ENDTAB
  0
TABLE
  2
VIEW
 70
     0
  0
ENDTAB
  0
ENDSEC
  0
SECTION
  2
BLOCKS
  0
BLOCK
  8
0
  2
_CLOSEDFILLED
 70
     0
 10
0.0
 20
0.0
  0
SOLID
  8
0
 10
-1.0
 20
0.166667
 11
-1.0
 21
-0.166667
 12
0.0
 22
0.0
 13
0.0
 23
0.0
  0
ENDBLK
  8
0
  0
BLOCK
  8
0
  2
_CLOSEDBLANK
 70
     0
 10
0.0
 20
0.0
  0
LINE
  8
0
 10
-1.0
 20
0.166667
 11
0.0
 21
0.0
  0
LINE
  8
0
 10
0.0
 20
0.0
 11
-1.0
 21
-0.166667
  0
LINE
  8
0
 10
-1.0
 20
0.166667
 11
-1.0
 21
-0.166667
  0
ENDBLK
  8
0
  0
BLOCK
  8
0
  2
_CLOSED
 70
     0
 10
0.0
 20
0.0
  0
LINE
  8
0
 10
-1.0
 20
0.166667
 11
0.0
 21
0.0
  0
LINE
  8
0
 10
0.0
 20
0.0
 11
-1.0
 21
-0.166667
  0
LINE
  8
0
 10
-1.0
 20
0.166667
 11
-1.0
 21
-0.166667
  0
LINE
  8
0
 10
0.0
 20
0.0
 11
-1.0
 21
0.0
  0
ENDBLK
  8
0
  0
BLOCK
  8
0
  2
_DOT
 70
     0
 10
0.0
 20
0.0
  0
POLYLINE
  8
0
 66
     1
 70
     1
  0
VERTEX
  8
0
 10
0.25
 20
0.0
 42
1.0
  0
VERTEX
  8
0
 10
-0.25
 20
0.0
 42
1.0
  0
SEQEND
  8
0
  0
LINE
  8
0
 10
-0.5
 20
0.0
 11
-1.0
 21
0.0
  0
ENDBLK
  8
0
  0
BLOCK
  8
0
  2
_ARCHTICK
 70
     0
 10
0.0
 20
0.0
  0
POLYLINE
  8
0
 66
     1
  0
VERTEX
  8
0
 10
0.5
 20
0.5
  0
VERTEX
  8
0
 10
-0.5
 20
-0.5
  0
SEQEND
  8
0
  0
ENDBLK
  8
0
  0
BLOCK
  8
0
  2
_OBLIQUE
 70
     0
 10
0.0
 20
0.0
  0
LINE
  8
0
 10
-0.5
 20
-0.5
 11
0.5
 21
0.5
  0
ENDBLK
  8
0
  0
BLOCK
  8
0
  2
_OPEN
 70
     0
 10
0.0
 20
0.0
  0
LINE
  8
0
 10
-1.0
 20
0.166667
 11
0.0
 21
0.0
  0
LINE
  8
0
 10
-1.0
 20
-0.166667
 11
0.0
 21
0.0
  0
LINE
  8
0
 10
0.0
 20
0.0
 11
-1.0
 21
0.0
  0
ENDBLK
  8
0
  0
BLOCK
  8
0
  2
_ORIGIN
 70
     0
 10
0.0
 20
0.0
  0
CIRCLE
  8
0
 10
0.0
 20
0.0
 40
0.5
  0
LINE
  8
0
 10
0.0
 20
0.0
 11
-1.0
 21
0.0
  0
ENDBLK
  8
0
  0
BLOCK
  8
0
  2
_ORIGIN2
 70
     0
 10
0.0
 20
0.0
  0
CIRCLE
  8
0
 10
0.0
 20
0.0
 40
0.5
  0
CIRCLE
  8
0
 10
0.0
 20
0.0
 40
0.25
  0
LINE
  8
0
 10
-0.5
 20
0.0
 11
-1.0
 21
0.0
  0
ENDBLK
  8
0
  0
BLOCK
  8
0
  2
_OPEN90
 70
     0
 10
0.0
 20
0.0
  0
LINE
  8
0
 10
-0.5
 20
0.5
 11
0.0
 21
0.0
  0
LINE
  8
0
 10
0.0
 20
0.0
 11
-0.5
 21
-0.5
  0
LINE
  8
0
 10
0.0
 20
0.0
 11
-1.0
 21
0.0
  0
ENDBLK
  8
0
  0
BLOCK
  8
0
  2
_OPEN30
 70
     0
 10
0.0
 20
0.0
  0
LINE
  8
0
 10
-1.0
 20
0.267949
 11
0.0
 21
0.0
  0
LINE
  8
0
 10
0.0
 20
0.0
 11
-1.0
 21
-0.267949
  0
LINE
  8
0
 10
0.0
 20
0.0
 11
-1.0
 21
0.0
  0
ENDBLK
  8
0
  0
BLOCK
  8
0
  2
_DOTSMALL
 70
     0
 10
0.0
 20
0.0
  0
POLYLINE
  8
0
 66
     1
 70
     1
  0
VERTEX
  8
0
 10
0.0625
 20
0.0
 42
1.0
  0
VERTEX
  8
0
 10
-0.0625
 20
0.0
 42
1.0
  0
SEQEND
  8
0
  0
ENDBLK
  8
0
  0
BLOCK
  8
0
  2
_DOTBLANK
 70
     0
 10
0.0
 20
0.0
  0
CIRCLE
  8
0
 10
0.0
 20
0.0
 40
0.5
  0
LINE
  8
0
 10
-0.5
 20
0.0
 11
-1.0
 21
0.0
  0
ENDBLK
  8
0
  0
BLOCK
  8
0
  2
_SMALL
 70
     0
 10
0.0
 20
0.0
  0
CIRCLE
  8
0
 10
0.0
 20
0.0
 40
0.25
  0
ENDBLK
  8
0
  0
BLOCK
  8
0
  2
_BOXBLANK
 70
     0
 10
0.0
 20
0.0
  0
LINE
  8
0
 10
-0.5
 20
-0.5
 11
0.5
 21
-0.5
  0
LINE
  8
0
 10
0.5
 20
-0.5
 11
0.5
 21
0.5
  0
LINE
  8
0
 10
0.5
 20
0.5
 11
-0.5
 21
0.5
  0
LINE
  8
0
 10
-0.5
 20
0.5
 11
-0.5
 21
-0.5
  0
LINE
  8
0
 10
-0.5
 20
0.0
 11
-1.0
 21
0.0
  0
ENDBLK
  8
0
  0
BLOCK
  8
0
  2
_BOXFILLED
 70
     0
 10
0.0
 20
0.0
  0
SOLID
  8
0
 10
-0.5
 20
0.5
 11
0.5
 21
0.5
 12
-0.5
 22
-0.5
 13
0.5
 23
-0.5
  0
LINE
  8
0
 10
-0.5
 20
0.0
 11
-1.0
 21
0.0
  0
ENDBLK
  8
0
  0
BLOCK
  8
0
  2
_DATUMBLANK
 70
     0
 10
0.0
 20
0.0
  0
LINE
  8
0
 10
0.0
 20
0.57735
 11
-1.0
 21
0.0
  0
LINE
  8
0
 10
-1.0
 20
0.0
 11
0.0
 21
-0.57735
  0
LINE
  8
0
 10
0.0
 20
-0.57735
 11
0.0
 21
0.57735
  0
ENDBLK
  8
0
  0
BLOCK
  8
0
  2
_DATUMFILLED
 70
     0
 10
0.0
 20
0.0
  0
SOLID
  8
0
 10
0.0
 20
0.57735
 11
-1.0
 21
0.0
 12
0.0
 22
-0.57735
 13
0.0
 23
-0.57735
  0
ENDBLK
  8
0
  0
BLOCK
  8
0
  2
_INTEGRAL
 70
     0
 10
0.0
 20
0.0
  0
ARC
  8
0
 10
0.444888
 20
-0.091335
 40
0.454167
 50
102.0
 51
168.0
  0
ARC
  8
0
 10
-0.444888
 20
0.091335
 40
0.454167
 50
281.9999999999999
 51
348.0
  0
ENDBLK
  8
0
  0
BLOCK
  8
0
  2
_NONE
 70
     0
 10
0.0
 20
0.0
  0
ENDBLK
  8
0
  0
BLOCK
  8
0
  2
*R20
 70
     1
 10
1.7
 20
5.0
  0
POLYLINE
  8
0
  6
CONTINUOUS
 66
     1
  0
VERTEX
  8
0
  6
CONTINUOUS
 10
10.0
 20
5.0
 42
1.0
  0
VERTEX
  8
0
  6
CONTINUOUS
 10
0.0
 20
5.0
 42
1.0
  0
VERTEX
  8
0
  6
CONTINUOUS
 10
10.0
 20
5.0
  0
SEQEND
  8
0
  6
CONTINUOUS
  0
POLYLINE
  8
0
  6
CONTINUOUS
 66
     1
  0
VERTEX
  8
0
  6
CONTINUOUS
 10
6.6
 20
5.0
 42
1.0
  0
VERTEX
  8
0
  6
CONTINUOUS
 10
3.4
 20
5.0
 42
1.0
  0
VERTEX
  8
0
  6
CONTINUOUS
 10
6.6
 20
5.0
  0
SEQEND
  8
0
  6
CONTINUOUS
  0
ENDBLK
  8
0
  0
BLOCK
  8
0
  2
*R21
 70
     1
 10
5.047117
 20
5.0
  0
POLYLINE
  8
0
  6
CONTINUOUS
 66
     1
  0
VERTEX
  8
0
  6
CONTINUOUS
 10
3.447117
 20
7.771281
  0
VERTEX
  8
0
  6
CONTINUOUS
 10
1.847117
 20
5.0
  0
VERTEX
  8
0
  6
CONTINUOUS
 10
3.447117
 20
2.228719
  0
VERTEX
  8
0
  6
CONTINUOUS
 10
6.647117
 20
2.228719
  0
VERTEX
  8
0
  6
CONTINUOUS
 10
8.247117
 20
5.0
  0
VERTEX
  8
0
  6
CONTINUOUS
 10
6.647117
 20
7.771281
  0
VERTEX
  8
0
  6
CONTINUOUS
 10
3.447117
 20
7.771281
  0
SEQEND
  8
0
  6
CONTINUOUS
  0
ENDBLK
  8
0
  0
BLOCK
  8
0
  2
*R22
 70
     1
 10
5.0
 20
5.0
  0
POLYLINE
  8
0
  6
CONTINUOUS
 66
     1
  0
VERTEX
  8
0
  6
CONTINUOUS
 10
6.6
 20
5.0
 42
1.0
  0
VERTEX
  8
0
  6
CONTINUOUS
 10
3.4
 20
5.0
 42
1.0
  0
VERTEX
  8
0
  6
CONTINUOUS
 10
6.6
 20
5.0
  0
SEQEND
  8
0
  6
CONTINUOUS
  0
ENDBLK
  8
0
  0
BLOCK
  8
0
  2
*R23
 70
     1
 10
14.5
 20
5.5
  0
POLYLINE
  8
0
  6
CONTINUOUS
 66
     1
  0
VERTEX
  8
0
  6
CONTINUOUS
 10
15.5
 20
8.964102
  0
VERTEX
  8
0
  6
CONTINUOUS
 10
13.5
 20
5.5
  0
VERTEX
  8
0
  6
CONTINUOUS
 10
15.5
 20
2.035898
  0
VERTEX
  8
0
  6
CONTINUOUS
 10
19.5
 20
2.035898
  0
VERTEX
  8
0
  6
CONTINUOUS
 10
21.5
 20
5.5
  0
VERTEX
  8
0
  6
CONTINUOUS
 10
19.5
 20
8.964102
  0
VERTEX
  8
0
  6
CONTINUOUS
 10
15.5
 20
8.964102
  0
SEQEND
  8
0
  6
CONTINUOUS
  0
POLYLINE
  8
0
  6
CONTINUOUS
 66
     1
  0
VERTEX
  8
0
  6
CONTINUOUS
 10
19.5
 20
5.5
 42
1.0
  0
VERTEX
  8
0
  6
CONTINUOUS
 10
15.5
 20
5.5
 42
1.0
  0
VERTEX
  8
0
  6
CONTINUOUS
 10
19.5
 20
5.5
  0
SEQEND
  8
0
  6
CONTINUOUS
  0
ENDBLK
  8
0
  0
BLOCK
  8
0
  2
*R24
 70
     1
 10
13.75
 20
5.5
  0
POLYLINE
  8
0
  6
CONTINUOUS
 66
     1
  0
VERTEX
  8
0
  6
CONTINUOUS
 10
23.0
 20
5.5
 42
1.0
  0
VERTEX
  8
0
  6
CONTINUOUS
 10
12.0
 20
5.5
 42
1.0
  0
VERTEX
  8
0
  6
CONTINUOUS
 10
23.0
 20
5.5
  0
SEQEND
  8
0
  6
CONTINUOUS
  0
POLYLINE
  8
0
  6
CONTINUOUS
 66
     1
  0
VERTEX
  8
0
  6
CONTINUOUS
 10
19.5
 20
5.5
 42
-1.0
  0
VERTEX
  8
0
  6
CONTINUOUS
 10
15.5
 20
5.5
 42
-1.0
  0
VERTEX
  8
0
  6
CONTINUOUS
 10
19.5
 20
5.5
  0
SEQEND
  8
0
  6
CONTINUOUS
  0
ENDBLK
  8
0
  0
BLOCK
  8
0
  2
*R25
 70
     1
 10
26.75
 20
6.0
  0
POLYLINE
  8
0
  6
CONTINUOUS
 66
     1
  0
VERTEX
  8
0
  6
CONTINUOUS
 10
37.0
 20
6.0
 42
1.0
  0
VERTEX
  8
0
  6
CONTINUOUS
 10
25.0
 20
6.0
 42
1.0
  0
VERTEX
  8
0
  6
CONTINUOUS
 10
37.0
 20
6.0
  0
SEQEND
  8
0
  6
CONTINUOUS
  0
POLYLINE
  8
0
  6
CONTINUOUS
 66
     1
  0
VERTEX
  8
0
  6
CONTINUOUS
 10
33.5
 20
6.0
 42
1.0
  0
VERTEX
  8
0
  6
CONTINUOUS
 10
28.5
 20
6.0
 42
1.0
  0
VERTEX
  8
0
  6
CONTINUOUS
 10
33.5
 20
6.0
  0
SEQEND
  8
0
  6
CONTINUOUS
  0
ENDBLK
  8
0
  0
BLOCK
  8
0
  2
*R26
 70
     1
 10
27.5
 20
6.0
  0
POLYLINE
  8
0
  6
CONTINUOUS
 66
     1
  0
VERTEX
  8
0
  6
CONTINUOUS
 10
28.75
 20
9.897114
  0
VERTEX
  8
0
  6
CONTINUOUS
 10
26.5
 20
6.0
  0
VERTEX
  8
0
  6
CONTINUOUS
 10
28.75
 20
2.102886
  0
VERTEX
  8
0
  6
CONTINUOUS
 10
33.25
 20
2.102886
  0
VERTEX
  8
0
  6
CONTINUOUS
 10
35.5
 20
6.0
  0
VERTEX
  8
0
  6
CONTINUOUS
 10
33.25
 20
9.897114
  0
VERTEX
  8
0
  6
CONTINUOUS
 10
28.75
 20
9.897114
  0
SEQEND
  8
0
  6
CONTINUOUS
  0
POLYLINE
  8
0
  6
CONTINUOUS
 66
     1
  0
VERTEX
  8
0
  6
CONTINUOUS
 10
33.5
 20
6.0
 42
1.0
  0
VERTEX
  8
0
  6
CONTINUOUS
 10
28.5
 20
6.0
 42
1.0
  0
VERTEX
  8
0
  6
CONTINUOUS
 10
33.5
 20
6.0
  0
SEQEND
  8
0
  6
CONTINUOUS
  0
ENDBLK
  8
0
  0
ENDSEC
  0
SECTION
  2
ENTITIES
  0
CIRCLE
  8
0
  6
CONTINUOUS
 10
5.0
 20
5.0
 40
1.6
  0
INSERT
  8
0
  6
CONTINUOUS
  2
*R20
 10
1.7
 20
5.0
 30
0.0
  0
INSERT
  8
0
  6
CONTINUOUS
  2
*R21
 10
5.047117
 20
5.0
 30
0.0
  0
INSERT
  8
0
  6
CONTINUOUS
  2
*R22
 10
5.0
 20
5.0
 30
0.0
  0
CIRCLE
  8
0
  6
CONTINUOUS
 10
17.5
 20
5.5
 40
2.0
  0
CIRCLE
  8
0
  6
CONTINUOUS
 10
17.5
 20
5.5
 40
5.5
  0
POLYLINE
  8
0
  6
CONTINUOUS
 66
     1
  0
VERTEX
  8
0
  6
CONTINUOUS
 10
15.5
 20
8.964102
  0
VERTEX
  8
0
  6
CONTINUOUS
 10
13.5
 20
5.5
  0
VERTEX
  8
0
  6
CONTINUOUS
 10
15.5
 20
2.035898
  0
VERTEX
  8
0
  6
CONTINUOUS
 10
19.5
 20
2.035898
  0
VERTEX
  8
0
  6
CONTINUOUS
 10
21.5
 20
5.5
  0
VERTEX
  8
0
  6
CONTINUOUS
 10
19.5
 20
8.964102
  0
VERTEX
  8
0
  6
CONTINUOUS
 10
15.5
 20
8.964102
  0
SEQEND
  8
0
  6
CONTINUOUS
  0
INSERT
  8
0
  6
CONTINUOUS
  2
*R23
 10
14.5
 20
5.5
 30
0.0
  0
INSERT
  8
0
  6
CONTINUOUS
  2
*R24
 10
13.75
 20
5.5
 30
0.0
  0
POLYLINE
  8
0
  6
CONTINUOUS
 66
     1
  0
VERTEX
  8
0
  6
CONTINUOUS
 10
28.75
 20
9.897114
  0
VERTEX
  8
0
  6
CONTINUOUS
 10
26.5
 20
6.0
  0
VERTEX
  8
0
  6
CONTINUOUS
 10
28.75
 20
2.102886
  0
VERTEX
  8
0
  6
CONTINUOUS
 10
33.25
 20
2.102886
  0
VERTEX
  8
0
  6
CONTINUOUS
 10
35.5
 20
6.0
  0
VERTEX
  8
0
  6
CONTINUOUS
 10
33.25
 20
9.897114
  0
VERTEX
  8
0
  6
CONTINUOUS
 10
28.75
 20
9.897114
  0
SEQEND
  8
0
  6
CONTINUOUS
  0
CIRCLE
  8
0
  6
CONTINUOUS
 10
31.0
 20
6.0
 40
2.5
  0
INSERT
  8
0
  6
CONTINUOUS
  2
*R25
 10
26.75
 20
6.0
 30
0.0
  0
INSERT
  8
0
  6
CONTINUOUS
  2
*R26
 10
27.5
 20
6.0
 30
0.0
  0
ENDSEC
  0
EOF
