  0
SECTION
  2
HEADER
  9
$ACADVER
  1
AC1004
  9
$INSBASE
 10
0.0
 20
0.0
  9
$EXTMIN
 10
1.000000000000000E+20
 20
1.000000000000000E+20
  9
$EXTMAX
 10
-1.000000000000000E+20
 20
-1.000000000000000E+20
  9
$LIMMIN
 10
0.0
 20
0.0
  9
$LIMMAX
 10
12.0
 20
9.0
  9
$ORTHOMODE
 70
     0
  9
$REGENMODE
 70
     1
  9
$FILLMODE
 70
     1
  9
$QTEXTMODE
 70
     0
  9
$DRAGMODE
 70
     2
  9
$LTSCALE
 40
1.0
  9
$OSMODE
 70
    37
  9
$ATTMODE
 70
     1
  9
$TEXTSIZE
 40
5.0
  9
$TRACEWID
 40
0.05
  9
$TEXTSTYLE
  7
STANDARD
  9
$CLAYER
  8
0
  9
$CELTYPE
  6
BYBLOCK
  9
$CECOLOR
 62
   256
  9
$DIMSCALE
 40
1.0
  9
$DIMASZ
 40
0.18
  9
$DIMEXO
 40
0.0625
  9
$DIMDLI
 40
0.38
  9
$DIMRND
 40
0.0
  9
$DIMDLE
 40
0.0
  9
$DIMEXE
 40
0.18
  9
$DIMTP
 40
0.0
  9
$DIMTM
 40
0.0
  9
$DIMTXT
 40
0.18
  9
$DIMCEN
 40
0.09
  9
$DIMTSZ
 40
0.0
  9
$DIMTOL
 70
     0
  9
$DIMLIM
 70
     0
  9
$DIMTIH
 70
     1
  9
$DIMTOH
 70
     1
  9
$DIMSE1
 70
     0
  9
$DIMSE2
 70
     0
  9
$DIMTAD
 70
     0
  9
$DIMZIN
 70
     0
  9
$DIMBLK
  1

  9
$DIMASO
 70
     1
  9
$DIMSHO
 70
     1
  9
$DIMPOST
  1

  9
$DIMAPOST
  1

  9
$DIMALT
 70
     0
  9
$DIMALTD
 70
     2
  9
$DIMALTF
 40
25.4
  9
$DIMLFAC
 40
1.0
  9
$DIMTOFL
 70
     0
  9
$DIMTVP
 40
0.0
  9
$DIMTIX
 70
     0
  9
$DIMSOXD
 70
     0
  9
$DIMSAH
 70
     0
  9
$DIMBLK1
  1

  9
$DIMBLK2
  1

  9
$LUNITS
 70
     2
  9
$LUPREC
 70
     4
  9
$SKETCHINC
 40
0.1
  9
$FILLETRAD
 40
0.5
  9
$AUNITS
 70
     0
  9
$AUPREC
 70
     0
  9
$MENU
  1
.
  9
$ELEVATION
 40
0.0
  9
$THICKNESS
 40
0.0
  9
$LIMCHECK
 70
     0
  9
$CHAMFERA
 40
0.0
  9
$CHAMFERB
 40
0.0
  9
$SKPOLY
 70
     0
  9
$TDCREATE
 40
2458964.7750675
  9
$TDUPDATE
 40
2458964.775067674
  9
$TDINDWG
 40
0.0000000116
  9
$TDUSRTIMER
 40
0.0000000116
  9
$USRTIMER
 70
     1
  9
$ANGBASE
 50
0.0
  9
$ANGDIR
 70
     0
  9
$PDMODE
 70
     0
  9
$PDSIZE
 40
0.0
  9
$PLINEWID
 40
0.0
  9
$COORDS
 70
     1
  9
$SPLFRAME
 70
     0
  9
$SPLINETYPE
 70
     6
  9
$SPLINESEGS
 70
     8
  9
$ATTDIA
 70
     0
  9
$ATTREQ
 70
     1
  9
$SURFTAB1
 70
     6
  9
$SURFTAB2
 70
     6
  9
$SURFTYPE
 70
     6
  9
$SURFU
 70
     6
  9
$SURFV
 70
     6
  9
$UCSNAME
  2

  9
$UCSORG
 10
0.0
 20
0.0
 30
0.0
  9
$UCSXDIR
 10
1.0
 20
0.0
 30
0.0
  9
$UCSYDIR
 10
0.0
 20
1.0
 30
0.0
  9
$USERI1
 70
     0
  9
$USERI2
 70
     0
  9
$USERI3
 70
     0
  9
$USERI4
 70
     0
  9
$USERI5
 70
     0
  9
$USERR1
 40
0.0
  9
$USERR2
 40
0.0
  9
$USERR3
 40
0.0
  9
$USERR4
 40
0.0
  9
$USERR5
 40
0.0
  9
$WORLDVIEW
 70
     1
  0
ENDSEC
  0
SECTION
  2
TABLES
  0
TABLE
  2
LTYPE
 70
     1
  0
LTYPE
  2
CONTINUOUS
 70
     0
  3
Solid line
 72
    65
 73
     0
 40
0.0
  0
ENDTAB
  0
TABLE
  2
LAYER
 70
     1
  0
LAYER
  2
0
 70
     0
 62
     7
  6
CONTINUOUS
  0
ENDTAB
  0
TABLE
  2
STYLE
 70
     1
  0
STYLE
  2
STANDARD
 70
     0
 40
5.0
 41
1.0
 50
0.0
 71
     0
 42
5.0
  3
Arial
  4

  0
ENDTAB
  0
TABLE
  2
VIEW
 70
     0
  0
ENDTAB
  0
ENDSEC
  0
SECTION
  2
BLOCKS
  0
BLOCK
  8
0
  2
_CLOSEDFILLED
 70
     0
 10
0.0
 20
0.0
  0
SOLID
  8
0
 10
-1.0
 20
0.166667
 11
-1.0
 21
-0.166667
 12
0.0
 22
0.0
 13
0.0
 23
0.0
  0
ENDBLK
  8
0
  0
BLOCK
  8
0
  2
_CLOSEDBLANK
 70
     0
 10
0.0
 20
0.0
  0
LINE
  8
0
 10
-1.0
 20
0.166667
 11
0.0
 21
0.0
  0
LINE
  8
0
 10
0.0
 20
0.0
 11
-1.0
 21
-0.166667
  0
LINE
  8
0
 10
-1.0
 20
0.166667
 11
-1.0
 21
-0.166667
  0
ENDBLK
  8
0
  0
BLOCK
  8
0
  2
_CLOSED
 70
     0
 10
0.0
 20
0.0
  0
LINE
  8
0
 10
-1.0
 20
0.166667
 11
0.0
 21
0.0
  0
LINE
  8
0
 10
0.0
 20
0.0
 11
-1.0
 21
-0.166667
  0
LINE
  8
0
 10
-1.0
 20
0.166667
 11
-1.0
 21
-0.166667
  0
LINE
  8
0
 10
0.0
 20
0.0
 11
-1.0
 21
0.0
  0
ENDBLK
  8
0
  0
BLOCK
  8
0
  2
_DOT
 70
     0
 10
0.0
 20
0.0
  0
POLYLINE
  8
0
 66
     1
 70
     1
  0
VERTEX
  8
0
 10
0.25
 20
0.0
 42
1.0
  0
VERTEX
  8
0
 10
-0.25
 20
0.0
 42
1.0
  0
SEQEND
  8
0
  0
LINE
  8
0
 10
-0.5
 20
0.0
 11
-1.0
 21
0.0
  0
ENDBLK
  8
0
  0
BLOCK
  8
0
  2
_ARCHTICK
 70
     0
 10
0.0
 20
0.0
  0
POLYLINE
  8
0
 66
     1
  0
VERTEX
  8
0
 10
0.5
 20
0.5
  0
VERTEX
  8
0
 10
-0.5
 20
-0.5
  0
SEQEND
  8
0
  0
ENDBLK
  8
0
  0
BLOCK
  8
0
  2
_OBLIQUE
 70
     0
 10
0.0
 20
0.0
  0
LINE
  8
0
 10
-0.5
 20
-0.5
 11
0.5
 21
0.5
  0
ENDBLK
  8
0
  0
BLOCK
  8
0
  2
_OPEN
 70
     0
 10
0.0
 20
0.0
  0
LINE
  8
0
 10
-1.0
 20
0.166667
 11
0.0
 21
0.0
  0
LINE
  8
0
 10
-1.0
 20
-0.166667
 11
0.0
 21
0.0
  0
LINE
  8
0
 10
0.0
 20
0.0
 11
-1.0
 21
0.0
  0
ENDBLK
  8
0
  0
BLOCK
  8
0
  2
_ORIGIN
 70
     0
 10
0.0
 20
0.0
  0
CIRCLE
  8
0
 10
0.0
 20
0.0
 40
0.5
  0
LINE
  8
0
 10
0.0
 20
0.0
 11
-1.0
 21
0.0
  0
ENDBLK
  8
0
  0
BLOCK
  8
0
  2
_ORIGIN2
 70
     0
 10
0.0
 20
0.0
  0
CIRCLE
  8
0
 10
0.0
 20
0.0
 40
0.5
  0
CIRCLE
  8
0
 10
0.0
 20
0.0
 40
0.25
  0
LINE
  8
0
 10
-0.5
 20
0.0
 11
-1.0
 21
0.0
  0
ENDBLK
  8
0
  0
BLOCK
  8
0
  2
_OPEN90
 70
     0
 10
0.0
 20
0.0
  0
LINE
  8
0
 10
-0.5
 20
0.5
 11
0.0
 21
0.0
  0
LINE
  8
0
 10
0.0
 20
0.0
 11
-0.5
 21
-0.5
  0
LINE
  8
0
 10
0.0
 20
0.0
 11
-1.0
 21
0.0
  0
ENDBLK
  8
0
  0
BLOCK
  8
0
  2
_OPEN30
 70
     0
 10
0.0
 20
0.0
  0
LINE
  8
0
 10
-1.0
 20
0.267949
 11
0.0
 21
0.0
  0
LINE
  8
0
 10
0.0
 20
0.0
 11
-1.0
 21
-0.267949
  0
LINE
  8
0
 10
0.0
 20
0.0
 11
-1.0
 21
0.0
  0
ENDBLK
  8
0
  0
BLOCK
  8
0
  2
_DOTSMALL
 70
     0
 10
0.0
 20
0.0
  0
POLYLINE
  8
0
 66
     1
 70
     1
  0
VERTEX
  8
0
 10
0.0625
 20
0.0
 42
1.0
  0
VERTEX
  8
0
 10
-0.0625
 20
0.0
 42
1.0
  0
SEQEND
  8
0
  0
ENDBLK
  8
0
  0
BLOCK
  8
0
  2
_DOTBLANK
 70
     0
 10
0.0
 20
0.0
  0
CIRCLE
  8
0
 10
0.0
 20
0.0
 40
0.5
  0
LINE
  8
0
 10
-0.5
 20
0.0
 11
-1.0
 21
0.0
  0
ENDBLK
  8
0
  0
BLOCK
  8
0
  2
_SMALL
 70
     0
 10
0.0
 20
0.0
  0
CIRCLE
  8
0
 10
0.0
 20
0.0
 40
0.25
  0
ENDBLK
  8
0
  0
BLOCK
  8
0
  2
_BOXBLANK
 70
     0
 10
0.0
 20
0.0
  0
LINE
  8
0
 10
-0.5
 20
-0.5
 11
0.5
 21
-0.5
  0
LINE
  8
0
 10
0.5
 20
-0.5
 11
0.5
 21
0.5
  0
LINE
  8
0
 10
0.5
 20
0.5
 11
-0.5
 21
0.5
  0
LINE
  8
0
 10
-0.5
 20
0.5
 11
-0.5
 21
-0.5
  0
LINE
  8
0
 10
-0.5
 20
0.0
 11
-1.0
 21
0.0
  0
ENDBLK
  8
0
  0
BLOCK
  8
0
  2
_BOXFILLED
 70
     0
 10
0.0
 20
0.0
  0
SOLID
  8
0
 10
-0.5
 20
0.5
 11
0.5
 21
0.5
 12
-0.5
 22
-0.5
 13
0.5
 23
-0.5
  0
LINE
  8
0
 10
-0.5
 20
0.0
 11
-1.0
 21
0.0
  0
ENDBLK
  8
0
  0
BLOCK
  8
0
  2
_DATUMBLANK
 70
     0
 10
0.0
 20
0.0
  0
LINE
  8
0
 10
0.0
 20
0.57735
 11
-1.0
 21
0.0
  0
LINE
  8
0
 10
-1.0
 20
0.0
 11
0.0
 21
-0.57735
  0
LINE
  8
0
 10
0.0
 20
-0.57735
 11
0.0
 21
0.57735
  0
ENDBLK
  8
0
  0
BLOCK
  8
0
  2
_DATUMFILLED
 70
     0
 10
0.0
 20
0.0
  0
SOLID
  8
0
 10
0.0
 20
0.57735
 11
-1.0
 21
0.0
 12
0.0
 22
-0.57735
 13
0.0
 23
-0.57735
  0
ENDBLK
  8
0
  0
BLOCK
  8
0
  2
_INTEGRAL
 70
     0
 10
0.0
 20
0.0
  0
ARC
  8
0
 10
0.444888
 20
-0.091335
 40
0.454167
 50
102.0
 51
168.0
  0
ARC
  8
0
 10
-0.444888
 20
0.091335
 40
0.454167
 50
281.9999999999999
 51
348.0
  0
ENDBLK
  8
0
  0
BLOCK
  8
0
  2
_NONE
 70
     0
 10
0.0
 20
0.0
  0
ENDBLK
  8
0
  0
ENDSEC
  0
SECTION
  2
ENTITIES
  0
LINE
  8
0
  6
CONTINUOUS
 10
18.2
 20
45.0
 11
18.2
 21
3.999106
  0
POLYLINE
  8
0
  6
CONTINUOUS
 66
     1
  0
VERTEX
  8
0
  6
CONTINUOUS
 10
18.2
 20
3.999106
 42
0.414083
  0
VERTEX
  8
0
  6
CONTINUOUS
 10
22.199106
 20
0.0
  0
SEQEND
  8
0
  6
CONTINUOUS
  0
LINE
  8
0
  6
CONTINUOUS
 10
22.199106
 20
0.0
 11
33.2
 21
0.0
  0
LINE
  8
0
  6
CONTINUOUS
 10
33.2
 20
0.0
 11
44.179284
 21
0.0
  0
POLYLINE
  8
0
  6
CONTINUOUS
 66
     1
  0
VERTEX
  8
0
  6
CONTINUOUS
 10
44.179284
 20
0.0
 42
0.413928
  0
VERTEX
  8
0
  6
CONTINUOUS
 10
48.178388
 20
3.996997
  0
SEQEND
  8
0
  6
CONTINUOUS
  0
LINE
  8
0
  6
CONTINUOUS
 10
48.178388
 20
3.996997
 11
48.2
 21
45.0
  0
LINE
  8
0
  6
CONTINUOUS
 10
48.2
 20
45.0
 11
50.4
 21
45.0
  0
LINE
  8
0
  6
CONTINUOUS
 10
50.4
 20
45.0
 11
50.4
 21
29.0
  0
LINE
  8
0
  6
CONTINUOUS
 10
50.4
 20
29.0
 11
50.399993
 21
3.999107
  0
POLYLINE
  8
0
  6
CONTINUOUS
 66
     1
  0
VERTEX
  8
0
  6
CONTINUOUS
 10
50.399993
 20
3.999107
 42
0.414083
  0
VERTEX
  8
0
  6
CONTINUOUS
 10
54.399099
 20
0.0
  0
SEQEND
  8
0
  6
CONTINUOUS
  0
LINE
  8
0
  6
CONTINUOUS
 10
54.399099
 20
0.0
 11
65.4
 21
0.0
  0
LINE
  8
0
  6
CONTINUOUS
 10
65.4
 20
0.0
 11
65.4
 21
60.0
  0
LINE
  8
0
  6
CONTINUOUS
 10
65.4
 20
60.0
 11
37.97983
 21
60.0
  0
POLYLINE
  8
0
  6
CONTINUOUS
 66
     1
  0
VERTEX
  8
0
  6
CONTINUOUS
 10
37.97983
 20
60.0
 42
0.414364
  0
VERTEX
  8
0
  6
CONTINUOUS
 10
33.978935
 20
55.998839
  0
SEQEND
  8
0
  6
CONTINUOUS
  0
LINE
  8
0
  6
CONTINUOUS
 10
33.978935
 20
55.998839
 11
34.0
 21
15.0
  0
LINE
  8
0
  6
CONTINUOUS
 10
34.0
 20
15.0
 11
31.3
 21
15.0
  0
LINE
  8
0
  6
CONTINUOUS
 10
0.0
 20
60.0
 11
0.0
 21
0.0
  0
LINE
  8
0
  6
CONTINUOUS
 10
0.0
 20
0.0
 11
11.000894
 21
0.0
  0
POLYLINE
  8
0
  6
CONTINUOUS
 66
     1
  0
VERTEX
  8
0
  6
CONTINUOUS
 10
11.000894
 20
0.0
 42
0.414083
  0
VERTEX
  8
0
  6
CONTINUOUS
 10
15.0
 20
3.999106
  0
SEQEND
  8
0
  6
CONTINUOUS
  0
LINE
  8
0
  6
CONTINUOUS
 10
15.0
 20
3.999106
 11
15.0
 21
45.0
  0
LINE
  8
0
  6
CONTINUOUS
 10
15.0
 20
45.0
 11
18.2
 21
45.0
  0
POLYLINE
  8
0
  6
CONTINUOUS
 66
     1
  0
VERTEX
  8
0
  6
CONTINUOUS
 10
0.0
 20
60.0
  0
VERTEX
  8
0
  6
CONTINUOUS
 10
27.33105
 20
60.0
 42
-0.414573
  0
VERTEX
  8
0
  6
CONTINUOUS
 10
31.331943
 20
55.995989
  0
VERTEX
  8
0
  6
CONTINUOUS
 10
31.3
 20
15.0
  0
SEQEND
  8
0
  6
CONTINUOUS
  0
LINE
  8
0
  6
CONTINUOUS
 10
130.4
 20
40.0
 11
130.4
 21
0.0
  0
LINE
  8
0
  6
CONTINUOUS
 10
120.4
 20
30.010736
 11
118.2
 21
30.0
  0
LINE
  8
0
  6
CONTINUOUS
 10
98.2
 20
30.0
 11
95.0
 21
30.0
  0
LINE
  8
0
  6
CONTINUOUS
 10
85.0
 20
0.0
 11
85.0
 21
40.0
  0
LINE
  8
0
  6
CONTINUOUS
 10
106.3
 20
10.0
 11
109.0
 21
10.0
  0
POLYLINE
  8
0
  6
CONTINUOUS
 66
     1
  0
VERTEX
  8
0
  6
CONTINUOUS
 10
85.0
 20
40.0
  0
VERTEX
  8
0
  6
CONTINUOUS
 10
102.300775
 20
40.0
  0
VERTEX
  8
0
  6
CONTINUOUS
 10
102.300894
 20
40.0
 42
-0.414083
  0
VERTEX
  8
0
  6
CONTINUOUS
 10
106.3
 20
36.000895
  0
VERTEX
  8
0
  6
CONTINUOUS
 10
106.3
 20
10.0
  0
SEQEND
  8
0
  6
CONTINUOUS
  0
POLYLINE
  8
0
  6
CONTINUOUS
 66
     1
  0
VERTEX
  8
0
  6
CONTINUOUS
 10
109.0
 20
10.0
  0
VERTEX
  8
0
  6
CONTINUOUS
 10
109.0
 20
35.999226
  0
VERTEX
  8
0
  6
CONTINUOUS
 10
109.0
 20
36.000895
 42
-0.414083
  0
VERTEX
  8
0
  6
CONTINUOUS
 10
112.999106
 20
40.0
  0
VERTEX
  8
0
  6
CONTINUOUS
 10
130.4
 20
40.0
  0
SEQEND
  8
0
  6
CONTINUOUS
  0
POLYLINE
  8
0
  6
CONTINUOUS
 66
     1
  0
VERTEX
  8
0
  6
CONTINUOUS
 10
120.4
 20
30.010736
  0
VERTEX
  8
0
  6
CONTINUOUS
 10
120.4
 20
4.000895
 42
0.414214
  0
VERTEX
  8
0
  6
CONTINUOUS
 10
124.399106
 20
0.0
  0
VERTEX
  8
0
  6
CONTINUOUS
 10
124.399225
 20
0.0
  0
VERTEX
  8
0
  6
CONTINUOUS
 10
130.4
 20
0.0
  0
SEQEND
  8
0
  6
CONTINUOUS
  0
POLYLINE
  8
0
  6
CONTINUOUS
 66
     1
  0
VERTEX
  8
0
  6
CONTINUOUS
 10
95.0
 20
30.0
  0
VERTEX
  8
0
  6
CONTINUOUS
 10
95.0
 20
4.000775
  0
VERTEX
  8
0
  6
CONTINUOUS
 10
95.0
 20
3.999106
 42
-0.414083
  0
VERTEX
  8
0
  6
CONTINUOUS
 10
91.000894
 20
0.0
  0
VERTEX
  8
0
  6
CONTINUOUS
 10
85.0
 20
0.0
  0
SEQEND
  8
0
  6
CONTINUOUS
  0
POLYLINE
  8
0
  6
CONTINUOUS
 66
     1
  0
VERTEX
  8
0
  6
CONTINUOUS
 10
98.2
 20
30.0
  0
VERTEX
  8
0
  6
CONTINUOUS
 10
98.2
 20
3.999106
 42
0.414083
  0
VERTEX
  8
0
  6
CONTINUOUS
 10
102.199106
 20
0.0
  0
VERTEX
  8
0
  6
CONTINUOUS
 10
114.200894
 20
0.0
 42
0.414214
  0
VERTEX
  8
0
  6
CONTINUOUS
 10
118.2
 20
4.000895
  0
VERTEX
  8
0
  6
CONTINUOUS
 10
118.2
 20
30.0
  0
SEQEND
  8
0
  6
CONTINUOUS
  0
LINE
  8
0
  6
CONTINUOUS
 10
-44.8
 20
30.152678
 11
-48.0
 21
30.152678
  0
LINE
  8
0
  6
CONTINUOUS
 10
-55.0
 20
0.152678
 11
-55.0
 21
37.152678
  0
LINE
  8
0
  6
CONTINUOUS
 10
-39.7
 20
7.152678
 11
-37.0
 21
7.152678
  0
LINE
  8
0
  6
CONTINUOUS
 10
-21.6
 20
37.152678
 11
-21.6
 21
0.152678
  0
LINE
  8
0
  6
CONTINUOUS
 10
-28.6
 20
30.163414
 11
-30.8
 21
30.152678
  0
POLYLINE
  8
0
  6
CONTINUOUS
 66
     1
  0
VERTEX
  8
0
  6
CONTINUOUS
 10
-55.0
 20
37.152678
  0
VERTEX
  8
0
  6
CONTINUOUS
 10
-43.699106
 20
37.152678
 42
-0.414083
  0
VERTEX
  8
0
  6
CONTINUOUS
 10
-39.7
 20
33.153572
  0
VERTEX
  8
0
  6
CONTINUOUS
 10
-39.7
 20
7.152678
  0
SEQEND
  8
0
  6
CONTINUOUS
  0
POLYLINE
  8
0
  6
CONTINUOUS
 66
     1
  0
VERTEX
  8
0
  6
CONTINUOUS
 10
-37.0
 20
7.152678
  0
VERTEX
  8
0
  6
CONTINUOUS
 10
-37.000671
 20
33.153469
 42
-0.41409
  0
VERTEX
  8
0
  6
CONTINUOUS
 10
-33.001566
 20
37.152678
  0
VERTEX
  8
0
  6
CONTINUOUS
 10
-21.6
 20
37.152678
  0
SEQEND
  8
0
  6
CONTINUOUS
  0
POLYLINE
  8
0
  6
CONTINUOUS
 66
     1
  0
VERTEX
  8
0
  6
CONTINUOUS
 10
-55.0
 20
0.152678
  0
VERTEX
  8
0
  6
CONTINUOUS
 10
-51.998434
 20
0.152678
 42
0.41409
  0
VERTEX
  8
0
  6
CONTINUOUS
 10
-47.999329
 20
4.151887
  0
VERTEX
  8
0
  6
CONTINUOUS
 10
-48.0
 20
30.152678
  0
SEQEND
  8
0
  6
CONTINUOUS
  0
POLYLINE
  8
0
  6
CONTINUOUS
 66
     1
  0
VERTEX
  8
0
  6
CONTINUOUS
 10
-30.8
 20
30.152678
  0
VERTEX
  8
0
  6
CONTINUOUS
 10
-30.77298
 20
4.155941
 42
-0.414387
  0
VERTEX
  8
0
  6
CONTINUOUS
 10
-34.772085
 20
0.152678
  0
VERTEX
  8
0
  6
CONTINUOUS
 10
-40.794653
 20
0.152678
 42
-0.414012
  0
VERTEX
  8
0
  6
CONTINUOUS
 10
-44.793758
 20
4.150823
  0
VERTEX
  8
0
  6
CONTINUOUS
 10
-44.8
 20
30.152678
  0
SEQEND
  8
0
  6
CONTINUOUS
  0
POLYLINE
  8
0
  6
CONTINUOUS
 66
     1
  0
VERTEX
  8
0
  6
CONTINUOUS
 10
-28.6
 20
30.163414
  0
VERTEX
  8
0
  6
CONTINUOUS
 10
-28.628366
 20
4.156146
 42
0.414402
  0
VERTEX
  8
0
  6
CONTINUOUS
 10
-24.629262
 20
0.152678
  0
VERTEX
  8
0
  6
CONTINUOUS
 10
-21.6
 20
0.152678
  0
SEQEND
  8
0
  6
CONTINUOUS
  0
POLYLINE
  8
0
  6
CONTINUOUS
 66
     1
  0
VERTEX
  8
0
  6
CONTINUOUS
 10
-37.5
 20
-82.847322
  0
VERTEX
  8
0
  6
CONTINUOUS
 10
-39.2
 20
-82.847322
  0
VERTEX
  8
0
  6
CONTINUOUS
 10
-39.2
 20
-56.846428
 42
0.333654
  0
VERTEX
  8
0
  6
CONTINUOUS
 10
-43.699106
 20
-52.847322
  0
VERTEX
  8
0
  6
CONTINUOUS
 10
-55.0
 20
-52.847322
  0
VERTEX
  8
0
  6
CONTINUOUS
 10
-55.0
 20
-89.847322
  0
VERTEX
  8
0
  6
CONTINUOUS
 10
-51.998434
 20
-89.847322
 42
0.333662
  0
VERTEX
  8
0
  6
CONTINUOUS
 10
-47.499329
 20
-85.848113
  0
VERTEX
  8
0
  6
CONTINUOUS
 10
-47.5
 20
-59.847322
  0
VERTEX
  8
0
  6
CONTINUOUS
 10
-45.3
 20
-59.847322
  0
VERTEX
  8
0
  6
CONTINUOUS
 10
-45.293758
 20
-85.849177
 42
0.333585
  0
VERTEX
  8
0
  6
CONTINUOUS
 10
-40.794653
 20
-89.847322
  0
VERTEX
  8
0
  6
CONTINUOUS
 10
-34.772085
 20
-89.847322
 42
0.333955
  0
VERTEX
  8
0
  6
CONTINUOUS
 10
-30.27298
 20
-85.844059
  0
VERTEX
  8
0
  6
CONTINUOUS
 10
-30.3
 20
-59.847322
  0
VERTEX
  8
0
  6
CONTINUOUS
 10
-29.1
 20
-59.836586
  0
VERTEX
  8
0
  6
CONTINUOUS
 10
-29.128366
 20
-85.843854
 42
0.33397
  0
VERTEX
  8
0
  6
CONTINUOUS
 10
-24.629262
 20
-89.847322
  0
VERTEX
  8
0
  6
CONTINUOUS
 10
-21.6
 20
-89.847322
  0
VERTEX
  8
0
  6
CONTINUOUS
 10
-21.6
 20
-52.847322
  0
VERTEX
  8
0
  6
CONTINUOUS
 10
-33.001566
 20
-52.847322
 42
0.333662
  0
VERTEX
  8
0
  6
CONTINUOUS
 10
-37.500671
 20
-56.846531
  0
VERTEX
  8
0
  6
CONTINUOUS
 10
-37.5
 20
-82.847322
  0
SEQEND
  8
0
  6
CONTINUOUS
  0
POLYLINE
  8
0
  6
CONTINUOUS
 66
     1
  0
VERTEX
  8
0
  6
CONTINUOUS
 10
95.5
 20
-60.0
  0
VERTEX
  8
0
  6
CONTINUOUS
 10
97.7
 20
-60.0
  0
VERTEX
  8
0
  6
CONTINUOUS
 10
97.7
 20
-86.000894
 42
0.333654
  0
VERTEX
  8
0
  6
CONTINUOUS
 10
102.199106
 20
-90.0
  0
VERTEX
  8
0
  6
CONTINUOUS
 10
114.200894
 20
-90.0
 42
0.333784
  0
VERTEX
  8
0
  6
CONTINUOUS
 10
118.7
 20
-85.999105
  0
VERTEX
  8
0
  6
CONTINUOUS
 10
118.7
 20
-60.0
  0
VERTEX
  8
0
  6
CONTINUOUS
 10
119.9
 20
-59.989264
  0
VERTEX
  8
0
  6
CONTINUOUS
 10
119.9
 20
-85.999105
 42
0.333784
  0
VERTEX
  8
0
  6
CONTINUOUS
 10
124.399106
 20
-90.0
  0
VERTEX
  8
0
  6
CONTINUOUS
 10
124.399225
 20
-90.0
  0
VERTEX
  8
0
  6
CONTINUOUS
 10
130.4
 20
-90.0
  0
VERTEX
  8
0
  6
CONTINUOUS
 10
130.4
 20
-50.0
  0
VERTEX
  8
0
  6
CONTINUOUS
 10
112.999106
 20
-50.0
 42
0.414083
  0
VERTEX
  8
0
  6
CONTINUOUS
 10
109.0
 20
-53.999105
  0
VERTEX
  8
0
  6
CONTINUOUS
 10
108.5
 20
-54.000774
  0
VERTEX
  8
0
  6
CONTINUOUS
 10
108.5
 20
-80.0
  0
VERTEX
  8
0
  6
CONTINUOUS
 10
106.8
 20
-80.0
  0
VERTEX
  8
0
  6
CONTINUOUS
 10
106.8
 20
-53.999105
 42
0.333654
  0
VERTEX
  8
0
  6
CONTINUOUS
 10
102.300894
 20
-50.0
  0
VERTEX
  8
0
  6
CONTINUOUS
 10
102.300775
 20
-50.0
  0
VERTEX
  8
0
  6
CONTINUOUS
 10
85.0
 20
-50.0
  0
VERTEX
  8
0
  6
CONTINUOUS
 10
85.0
 20
-90.0
  0
VERTEX
  8
0
  6
CONTINUOUS
 10
91.000894
 20
-90.0
 42
0.333798
  0
VERTEX
  8
0
  6
CONTINUOUS
 10
95.5
 20
-85.999225
  0
VERTEX
  8
0
  6
CONTINUOUS
 10
95.5
 20
-60.0
  0
SEQEND
  8
0
  6
CONTINUOUS
  0
POLYLINE
  8
0
  6
CONTINUOUS
 66
     1
  0
VERTEX
  8
0
  6
CONTINUOUS
 10
15.5
 20
-86.000894
  0
VERTEX
  8
0
  6
CONTINUOUS
 10
15.5
 20
-45.0
  0
VERTEX
  8
0
  6
CONTINUOUS
 10
17.7
 20
-45.0
  0
VERTEX
  8
0
  6
CONTINUOUS
 10
17.7
 20
-86.000894
 42
0.333654
  0
VERTEX
  8
0
  6
CONTINUOUS
 10
22.199106
 20
-90.0
  0
VERTEX
  8
0
  6
CONTINUOUS
 10
33.2
 20
-90.0
  0
VERTEX
  8
0
  6
CONTINUOUS
 10
44.179284
 20
-90.0
 42
0.333502
  0
VERTEX
  8
0
  6
CONTINUOUS
 10
48.678388
 20
-86.003003
  0
VERTEX
  8
0
  6
CONTINUOUS
 10
48.7
 20
-45.0
  0
VERTEX
  8
0
  6
CONTINUOUS
 10
49.9
 20
-45.0
  0
VERTEX
  8
0
  6
CONTINUOUS
 10
49.899993
 20
-86.000893
 42
0.333654
  0
VERTEX
  8
0
  6
CONTINUOUS
 10
54.399099
 20
-90.0
  0
VERTEX
  8
0
  6
CONTINUOUS
 10
65.4
 20
-90.0
  0
VERTEX
  8
0
  6
CONTINUOUS
 10
65.4
 20
-30.0
  0
VERTEX
  8
0
  6
CONTINUOUS
 10
37.97983
 20
-30.0
 42
0.333952
  0
VERTEX
  8
0
  6
CONTINUOUS
 10
33.478935
 20
-34.001161
  0
VERTEX
  8
0
  6
CONTINUOUS
 10
33.5
 20
-75.0
  0
VERTEX
  8
0
  6
CONTINUOUS
 10
31.8
 20
-75.0
  0
VERTEX
  8
0
  6
CONTINUOUS
 10
31.831943
 20
-34.004011
 42
0.334158
  0
VERTEX
  8
0
  6
CONTINUOUS
 10
27.33105
 20
-30.0
  0
VERTEX
  8
0
  6
CONTINUOUS
 10
0.0
 20
-30.0
  0
VERTEX
  8
0
  6
CONTINUOUS
 10
0.0
 20
-90.0
  0
VERTEX
  8
0
  6
CONTINUOUS
 10
11.000894
 20
-90.0
 42
0.333654
  0
VERTEX
  8
0
  6
CONTINUOUS
 10
15.5
 20
-86.000894
  0
SEQEND
  8
0
  6
CONTINUOUS
  0
TEXT
  8
0
  6
CONTINUOUS
 10
0.418058
 20
-21.373414
 40
3.333333
  1
untere Reihe = 2, 1.5, 1 mm
  0
TEXT
  8
0
  6
CONTINUOUS
 10
-0.588719
 20
72.90631
 40
3.333333
  1
obere Reihe = 3, 2.5, 2 mm
  0
ENDSEC
  0
EOF
