0
SECTION
2
HEADER
0
ENDSEC
0
SECTION
2
TABLES
0
TABLE
2
LTYPE
0
LTYPE
2
Continuous
70
0
3
Solid line
72
65
73
0
40
0.000000
0
ENDTAB
0
TABLE
2
LAYER
0
LAYER
2
0
70
0
62
7
6
Continuous
0
ENDTAB
0
TABLE
2
STYLE
0
STYLE
2
Standard
3
Arial
70
0
71
0
40
5.000000
41
1.000000
42
5.000000
50
0.000000
0
ENDTAB
0
TABLE
2
DIMSTYLE
0
DIMSTYLE
2
Standard
70
0
3

4

5

6
CLOSEDFILLED
7
CLOSEDFILLED
40
1.000000
41
2.000000
42
1.000000
43
5.000000
44
2.000000
45
0.000000
46
0.000000
47
0.000000
48
0.000000
140
5.000000
141
2.000000
142
0.000000
143
25.400000
144
1.000000
145
0.000000
146
1.000000
147
2.000000
71
0
72
0
73
0
74
1
75
0
76
0
77
0
78
0
170
0
171
4
172
0
173
1
174
0
175
0
176
0
177
-2
178
-2
271
4
272
4
273
1
274
4
275
0
280
0
281
0
282
0
283
1
288
0
0
ENDTAB
0
ENDSEC
0
SECTION
2
BLOCKS
0
BLOCK
8
0
2
_CLOSEDFILLED
70
0
10
0.000000
20
0.000000
3
_CLOSEDFILLED
0
SOLID
8
0
10
-1.000000
20
0.166667
30
0.000000
11
-1.000000
21
-0.166667
31
0.000000
12
0.000000
22
0.000000
32
0.000000
13
0.000000
23
0.000000
33
0.000000
0
ENDBLK
0
BLOCK
8
0
2
_CLOSEDBLANK
70
0
10
0.000000
20
0.000000
3
_CLOSEDBLANK
0
LINE
8
0
10
-1.000000
20
0.166667
30
0.000000
11
0.000000
21
0.000000
31
0.000000
0
LINE
8
0
10
0.000000
20
0.000000
30
0.000000
11
-1.000000
21
-0.166667
31
0.000000
0
LINE
8
0
10
-1.000000
20
0.166667
30
0.000000
11
-1.000000
21
-0.166667
31
0.000000
0
ENDBLK
0
BLOCK
8
0
2
_CLOSED
70
0
10
0.000000
20
0.000000
3
_CLOSED
0
LINE
8
0
10
-1.000000
20
0.166667
30
0.000000
11
0.000000
21
0.000000
31
0.000000
0
LINE
8
0
10
0.000000
20
0.000000
30
0.000000
11
-1.000000
21
-0.166667
31
0.000000
0
LINE
8
0
10
-1.000000
20
0.166667
30
0.000000
11
-1.000000
21
-0.166667
31
0.000000
0
LINE
8
0
10
0.000000
20
0.000000
30
0.000000
11
-1.000000
21
0.000000
31
0.000000
0
ENDBLK
0
BLOCK
8
0
2
_DOT
70
0
10
0.000000
20
0.000000
3
_DOT
0
POLYLINE
8
0
70
1
66
 1
10
0.0
20
0.0
30
0.000000
0
VERTEX
8
0
10
0.250000
20
0.000000
30
0.000000
42
1.000000
0
VERTEX
8
0
10
-0.250000
20
0.000000
30
0.000000
42
1.000000
0
SEQEND
8
0
0
LINE
8
0
10
-0.500000
20
0.000000
30
0.000000
11
-1.000000
21
0.000000
31
0.000000
0
ENDBLK
0
BLOCK
8
0
2
_ARCHTICK
70
0
10
0.000000
20
0.000000
3
_ARCHTICK
0
POLYLINE
8
0
70
0
66
 1
10
0.0
20
0.0
30
0.000000
0
VERTEX
8
0
10
0.500000
20
0.500000
30
0.000000
0
VERTEX
8
0
10
-0.500000
20
-0.500000
30
0.000000
0
SEQEND
8
0
0
ENDBLK
0
BLOCK
8
0
2
_OBLIQUE
70
0
10
0.000000
20
0.000000
3
_OBLIQUE
0
LINE
8
0
10
-0.500000
20
-0.500000
30
0.000000
11
0.500000
21
0.500000
31
0.000000
0
ENDBLK
0
BLOCK
8
0
2
_OPEN
70
0
10
0.000000
20
0.000000
3
_OPEN
0
LINE
8
0
10
-1.000000
20
0.166667
30
0.000000
11
0.000000
21
0.000000
31
0.000000
0
LINE
8
0
10
-1.000000
20
-0.166667
30
0.000000
11
0.000000
21
0.000000
31
0.000000
0
LINE
8
0
10
0.000000
20
0.000000
30
0.000000
11
-1.000000
21
0.000000
31
0.000000
0
ENDBLK
0
BLOCK
8
0
2
_ORIGIN
70
0
10
0.000000
20
0.000000
3
_ORIGIN
0
CIRCLE
8
0
10
0.000000
20
0.000000
40
0.500000
0
LINE
8
0
10
0.000000
20
0.000000
30
0.000000
11
-1.000000
21
0.000000
31
0.000000
0
ENDBLK
0
BLOCK
8
0
2
_ORIGIN2
70
0
10
0.000000
20
0.000000
3
_ORIGIN2
0
CIRCLE
8
0
10
0.000000
20
0.000000
40
0.500000
0
CIRCLE
8
0
10
0.000000
20
0.000000
40
0.250000
0
LINE
8
0
10
-0.500000
20
0.000000
30
0.000000
11
-1.000000
21
0.000000
31
0.000000
0
ENDBLK
0
BLOCK
8
0
2
_OPEN90
70
0
10
0.000000
20
0.000000
3
_OPEN90
0
LINE
8
0
10
-0.500000
20
0.500000
30
0.000000
11
0.000000
21
0.000000
31
0.000000
0
LINE
8
0
10
0.000000
20
0.000000
30
0.000000
11
-0.500000
21
-0.500000
31
0.000000
0
LINE
8
0
10
0.000000
20
0.000000
30
0.000000
11
-1.000000
21
0.000000
31
0.000000
0
ENDBLK
0
BLOCK
8
0
2
_OPEN30
70
0
10
0.000000
20
0.000000
3
_OPEN30
0
LINE
8
0
10
-1.000000
20
0.267949
30
0.000000
11
0.000000
21
0.000000
31
0.000000
0
LINE
8
0
10
0.000000
20
0.000000
30
0.000000
11
-1.000000
21
-0.267949
31
0.000000
0
LINE
8
0
10
0.000000
20
0.000000
30
0.000000
11
-1.000000
21
0.000000
31
0.000000
0
ENDBLK
0
BLOCK
8
0
2
_DOTSMALL
70
0
10
0.000000
20
0.000000
3
_DOTSMALL
0
POLYLINE
8
0
70
1
66
 1
10
0.0
20
0.0
30
0.000000
0
VERTEX
8
0
10
0.062500
20
0.000000
30
0.000000
42
1.000000
0
VERTEX
8
0
10
-0.062500
20
0.000000
30
0.000000
42
1.000000
0
SEQEND
8
0
0
ENDBLK
0
BLOCK
8
0
2
_DOTBLANK
70
0
10
0.000000
20
0.000000
3
_DOTBLANK
0
CIRCLE
8
0
10
0.000000
20
0.000000
40
0.500000
0
LINE
8
0
10
-0.500000
20
0.000000
30
0.000000
11
-1.000000
21
0.000000
31
0.000000
0
ENDBLK
0
BLOCK
8
0
2
_SMALL
70
0
10
0.000000
20
0.000000
3
_SMALL
0
CIRCLE
8
0
10
0.000000
20
0.000000
40
0.250000
0
ENDBLK
0
BLOCK
8
0
2
_BOXBLANK
70
0
10
0.000000
20
0.000000
3
_BOXBLANK
0
LINE
8
0
10
-0.500000
20
-0.500000
30
0.000000
11
0.500000
21
-0.500000
31
0.000000
0
LINE
8
0
10
0.500000
20
-0.500000
30
0.000000
11
0.500000
21
0.500000
31
0.000000
0
LINE
8
0
10
0.500000
20
0.500000
30
0.000000
11
-0.500000
21
0.500000
31
0.000000
0
LINE
8
0
10
-0.500000
20
0.500000
30
0.000000
11
-0.500000
21
-0.500000
31
0.000000
0
LINE
8
0
10
-0.500000
20
0.000000
30
0.000000
11
-1.000000
21
0.000000
31
0.000000
0
ENDBLK
0
BLOCK
8
0
2
_BOXFILLED
70
0
10
0.000000
20
0.000000
3
_BOXFILLED
0
SOLID
8
0
10
-0.500000
20
0.500000
30
0.000000
11
0.500000
21
0.500000
31
0.000000
12
-0.500000
22
-0.500000
32
0.000000
13
0.500000
23
-0.500000
33
0.000000
0
LINE
8
0
10
-0.500000
20
0.000000
30
0.000000
11
-1.000000
21
0.000000
31
0.000000
0
ENDBLK
0
BLOCK
8
0
2
_DATUMBLANK
70
0
10
0.000000
20
0.000000
3
_DATUMBLANK
0
LINE
8
0
10
0.000000
20
0.577350
30
0.000000
11
-1.000000
21
0.000000
31
0.000000
0
LINE
8
0
10
-1.000000
20
0.000000
30
0.000000
11
0.000000
21
-0.577350
31
0.000000
0
LINE
8
0
10
0.000000
20
-0.577350
30
0.000000
11
0.000000
21
0.577350
31
0.000000
0
ENDBLK
0
BLOCK
8
0
2
_DATUMFILLED
70
0
10
0.000000
20
0.000000
3
_DATUMFILLED
0
SOLID
8
0
10
0.000000
20
0.577350
30
0.000000
11
-1.000000
21
0.000000
31
0.000000
12
0.000000
22
-0.577350
32
0.000000
13
0.000000
23
-0.577350
33
0.000000
0
ENDBLK
0
BLOCK
8
0
2
_INTEGRAL
70
0
10
0.000000
20
0.000000
3
_INTEGRAL
0
ARC
8
0
10
0.444888
20
-0.091335
40
0.454167
50
102.000000
51
168.000000
0
ARC
8
0
10
-0.444888
20
0.091335
40
0.454167
50
282.000000
51
348.000000
0
ENDBLK
0
BLOCK
8
0
2
_NONE
70
0
10
0.000000
20
0.000000
3
_NONE
0
ENDBLK
0
ENDSEC
0
SECTION
2
ENTITIES
0
POLYLINE
8
0
6
Continuous
70
0
66
 1
10
0.0
20
0.0
30
0.000000
0
VERTEX
8
0
10
-347.000000
20
-20.000000
30
0.000000
0
VERTEX
8
0
10
-347.000000
20
-30.425000
30
0.000000
0
VERTEX
8
0
10
-350.000000
20
-30.425000
30
0.000000
0
VERTEX
8
0
10
-350.000000
20
-40.775000
30
0.000000
0
VERTEX
8
0
10
-347.000000
20
-40.775000
30
0.000000
0
VERTEX
8
0
10
-347.000000
20
-51.225000
30
0.000000
0
VERTEX
8
0
10
-350.000000
20
-51.225000
30
0.000000
0
VERTEX
8
0
10
-350.000000
20
-61.575000
30
0.000000
0
VERTEX
8
0
10
-347.000000
20
-61.575000
30
0.000000
0
VERTEX
8
0
10
-347.000000
20
-72.000000
30
0.000000
0
VERTEX
8
0
10
-331.070238
20
-72.000000
30
0.000000
0
VERTEX
8
0
10
-331.070238
20
-75.000000
30
0.000000
0
VERTEX
8
0
10
-315.215476
20
-75.000000
30
0.000000
0
VERTEX
8
0
10
-315.215476
20
-72.000000
30
0.000000
0
VERTEX
8
0
10
-299.260714
20
-72.000000
30
0.000000
0
VERTEX
8
0
10
-299.260714
20
-75.000000
30
0.000000
0
VERTEX
8
0
10
-283.405952
20
-75.000000
30
0.000000
0
VERTEX
8
0
10
-283.405952
20
-72.000000
30
0.000000
0
VERTEX
8
0
10
-267.451190
20
-72.000000
30
0.000000
0
VERTEX
8
0
10
-267.451190
20
-75.000000
30
0.000000
0
VERTEX
8
0
10
-251.596429
20
-75.000000
30
0.000000
0
VERTEX
8
0
10
-251.596429
20
-72.000000
30
0.000000
0
VERTEX
8
0
10
-235.641667
20
-72.000000
30
0.000000
0
VERTEX
8
0
10
-235.641667
20
-75.000000
30
0.000000
0
VERTEX
8
0
10
-219.786905
20
-75.000000
30
0.000000
0
VERTEX
8
0
10
-219.786905
20
-72.000000
30
0.000000
0
VERTEX
8
0
10
-203.832143
20
-72.000000
30
0.000000
0
VERTEX
8
0
10
-203.832143
20
-75.000000
30
0.000000
0
VERTEX
8
0
10
-187.977381
20
-75.000000
30
0.000000
0
VERTEX
8
0
10
-187.977381
20
-72.000000
30
0.000000
0
VERTEX
8
0
10
-172.022619
20
-72.000000
30
0.000000
0
VERTEX
8
0
10
-172.022619
20
-75.000000
30
0.000000
0
VERTEX
8
0
10
-156.167857
20
-75.000000
30
0.000000
0
VERTEX
8
0
10
-156.167857
20
-72.000000
30
0.000000
0
VERTEX
8
0
10
-140.213095
20
-72.000000
30
0.000000
0
VERTEX
8
0
10
-140.213095
20
-75.000000
30
0.000000
0
VERTEX
8
0
10
-124.358333
20
-75.000000
30
0.000000
0
VERTEX
8
0
10
-124.358333
20
-72.000000
30
0.000000
0
VERTEX
8
0
10
-108.403571
20
-72.000000
30
0.000000
0
VERTEX
8
0
10
-108.403571
20
-75.000000
30
0.000000
0
VERTEX
8
0
10
-92.548810
20
-75.000000
30
0.000000
0
VERTEX
8
0
10
-92.548810
20
-72.000000
30
0.000000
0
VERTEX
8
0
10
-76.594048
20
-72.000000
30
0.000000
0
VERTEX
8
0
10
-76.594048
20
-75.000000
30
0.000000
0
VERTEX
8
0
10
-60.739286
20
-75.000000
30
0.000000
0
VERTEX
8
0
10
-60.739286
20
-72.000000
30
0.000000
0
VERTEX
8
0
10
-44.784524
20
-72.000000
30
0.000000
0
VERTEX
8
0
10
-44.784524
20
-75.000000
30
0.000000
0
VERTEX
8
0
10
-28.929762
20
-75.000000
30
0.000000
0
VERTEX
8
0
10
-28.929762
20
-72.000000
30
0.000000
0
VERTEX
8
0
10
-13.000000
20
-72.000000
30
0.000000
0
VERTEX
8
0
10
-13.000000
20
-61.575000
30
0.000000
0
VERTEX
8
0
10
-10.000000
20
-61.575000
30
0.000000
0
VERTEX
8
0
10
-10.000000
20
-51.225000
30
0.000000
0
VERTEX
8
0
10
-13.000000
20
-51.225000
30
0.000000
0
VERTEX
8
0
10
-13.000000
20
-40.775000
30
0.000000
0
VERTEX
8
0
10
-10.000000
20
-40.775000
30
0.000000
0
VERTEX
8
0
10
-10.000000
20
-30.425000
30
0.000000
0
VERTEX
8
0
10
-13.000000
20
-30.425000
30
0.000000
0
VERTEX
8
0
10
-13.000000
20
-20.000000
30
0.000000
0
VERTEX
8
0
10
-347.000000
20
-20.000000
30
0.000000
0
SEQEND
8
0
0
POLYLINE
8
0
6
Continuous
70
0
66
 1
10
0.0
20
0.0
30
0.000000
0
VERTEX
8
0
10
0.000000
20
230.000000
30
0.000000
0
VERTEX
8
0
10
0.000000
20
227.000000
30
0.000000
0
VERTEX
8
0
10
0.000000
20
212.066667
30
0.000000
0
VERTEX
8
0
10
3.000000
20
212.066667
30
0.000000
0
VERTEX
8
0
10
3.000000
20
197.133333
30
0.000000
0
VERTEX
8
0
10
0.000000
20
197.133333
30
0.000000
0
VERTEX
8
0
10
0.000000
20
182.200000
30
0.000000
0
VERTEX
8
0
10
3.000000
20
182.200000
30
0.000000
0
VERTEX
8
0
10
3.000000
20
167.266667
30
0.000000
0
VERTEX
8
0
10
0.000000
20
167.266667
30
0.000000
0
VERTEX
8
0
10
0.000000
20
152.333333
30
0.000000
0
VERTEX
8
0
10
3.000000
20
152.333333
30
0.000000
0
VERTEX
8
0
10
3.000000
20
137.400000
30
0.000000
0
VERTEX
8
0
10
0.000000
20
137.400000
30
0.000000
0
VERTEX
8
0
10
0.000000
20
122.466667
30
0.000000
0
VERTEX
8
0
10
3.000000
20
122.466667
30
0.000000
0
VERTEX
8
0
10
3.000000
20
107.533333
30
0.000000
0
VERTEX
8
0
10
0.000000
20
107.533333
30
0.000000
0
VERTEX
8
0
10
0.000000
20
92.600000
30
0.000000
0
VERTEX
8
0
10
3.000000
20
92.600000
30
0.000000
0
VERTEX
8
0
10
3.000000
20
77.666667
30
0.000000
0
VERTEX
8
0
10
0.000000
20
77.666667
30
0.000000
0
VERTEX
8
0
10
0.000000
20
62.733333
30
0.000000
0
VERTEX
8
0
10
3.000000
20
62.733333
30
0.000000
0
VERTEX
8
0
10
3.000000
20
47.800000
30
0.000000
0
VERTEX
8
0
10
0.000000
20
47.800000
30
0.000000
0
VERTEX
8
0
10
0.000000
20
32.866667
30
0.000000
0
VERTEX
8
0
10
3.000000
20
32.866667
30
0.000000
0
VERTEX
8
0
10
3.000000
20
17.933333
30
0.000000
0
VERTEX
8
0
10
0.000000
20
17.933333
30
0.000000
0
VERTEX
8
0
10
0.000000
20
0.000000
30
0.000000
0
VERTEX
8
0
10
18.904762
20
0.000000
30
0.000000
0
VERTEX
8
0
10
18.904762
20
3.000000
30
0.000000
0
VERTEX
8
0
10
34.809524
20
3.000000
30
0.000000
0
VERTEX
8
0
10
34.809524
20
0.000000
30
0.000000
0
VERTEX
8
0
10
50.714286
20
0.000000
30
0.000000
0
VERTEX
8
0
10
50.714286
20
3.000000
30
0.000000
0
VERTEX
8
0
10
66.619048
20
3.000000
30
0.000000
0
VERTEX
8
0
10
66.619048
20
0.000000
30
0.000000
0
VERTEX
8
0
10
82.523810
20
0.000000
30
0.000000
0
VERTEX
8
0
10
82.523810
20
3.000000
30
0.000000
0
VERTEX
8
0
10
98.428571
20
3.000000
30
0.000000
0
VERTEX
8
0
10
98.428571
20
0.000000
30
0.000000
0
VERTEX
8
0
10
114.333333
20
0.000000
30
0.000000
0
VERTEX
8
0
10
114.333333
20
3.000000
30
0.000000
0
VERTEX
8
0
10
130.238095
20
3.000000
30
0.000000
0
VERTEX
8
0
10
130.238095
20
0.000000
30
0.000000
0
VERTEX
8
0
10
146.142857
20
0.000000
30
0.000000
0
VERTEX
8
0
10
146.142857
20
3.000000
30
0.000000
0
VERTEX
8
0
10
162.047619
20
3.000000
30
0.000000
0
VERTEX
8
0
10
162.047619
20
0.000000
30
0.000000
0
VERTEX
8
0
10
177.952381
20
0.000000
30
0.000000
0
VERTEX
8
0
10
177.952381
20
3.000000
30
0.000000
0
VERTEX
8
0
10
193.857143
20
3.000000
30
0.000000
0
VERTEX
8
0
10
193.857143
20
0.000000
30
0.000000
0
VERTEX
8
0
10
209.761905
20
0.000000
30
0.000000
0
VERTEX
8
0
10
209.761905
20
3.000000
30
0.000000
0
VERTEX
8
0
10
225.666667
20
3.000000
30
0.000000
0
VERTEX
8
0
10
225.666667
20
0.000000
30
0.000000
0
VERTEX
8
0
10
241.571429
20
0.000000
30
0.000000
0
VERTEX
8
0
10
241.571429
20
3.000000
30
0.000000
0
VERTEX
8
0
10
257.476190
20
3.000000
30
0.000000
0
VERTEX
8
0
10
257.476190
20
0.000000
30
0.000000
0
VERTEX
8
0
10
273.380952
20
0.000000
30
0.000000
0
VERTEX
8
0
10
273.380952
20
3.000000
30
0.000000
0
VERTEX
8
0
10
289.285714
20
3.000000
30
0.000000
0
VERTEX
8
0
10
289.285714
20
0.000000
30
0.000000
0
VERTEX
8
0
10
305.190476
20
0.000000
30
0.000000
0
VERTEX
8
0
10
305.190476
20
3.000000
30
0.000000
0
VERTEX
8
0
10
321.095238
20
3.000000
30
0.000000
0
VERTEX
8
0
10
321.095238
20
0.000000
30
0.000000
0
VERTEX
8
0
10
337.000000
20
0.000000
30
0.000000
0
VERTEX
8
0
10
340.000000
20
0.000000
30
0.000000
0
VERTEX
8
0
10
340.000000
20
17.933333
30
0.000000
0
VERTEX
8
0
10
337.000000
20
17.933333
30
0.000000
0
VERTEX
8
0
10
337.000000
20
32.866667
30
0.000000
0
VERTEX
8
0
10
340.000000
20
32.866667
30
0.000000
0
VERTEX
8
0
10
340.000000
20
47.800000
30
0.000000
0
VERTEX
8
0
10
337.000000
20
47.800000
30
0.000000
0
VERTEX
8
0
10
337.000000
20
62.733333
30
0.000000
0
VERTEX
8
0
10
340.000000
20
62.733333
30
0.000000
0
VERTEX
8
0
10
340.000000
20
77.666667
30
0.000000
0
VERTEX
8
0
10
337.000000
20
77.666667
30
0.000000
0
VERTEX
8
0
10
337.000000
20
92.600000
30
0.000000
0
VERTEX
8
0
10
340.000000
20
92.600000
30
0.000000
0
VERTEX
8
0
10
340.000000
20
107.533333
30
0.000000
0
VERTEX
8
0
10
337.000000
20
107.533333
30
0.000000
0
VERTEX
8
0
10
337.000000
20
122.466667
30
0.000000
0
VERTEX
8
0
10
340.000000
20
122.466667
30
0.000000
0
VERTEX
8
0
10
340.000000
20
137.400000
30
0.000000
0
VERTEX
8
0
10
337.000000
20
137.400000
30
0.000000
0
VERTEX
8
0
10
337.000000
20
152.333333
30
0.000000
0
VERTEX
8
0
10
340.000000
20
152.333333
30
0.000000
0
VERTEX
8
0
10
340.000000
20
167.266667
30
0.000000
0
VERTEX
8
0
10
337.000000
20
167.266667
30
0.000000
0
VERTEX
8
0
10
337.000000
20
182.200000
30
0.000000
0
VERTEX
8
0
10
340.000000
20
182.200000
30
0.000000
0
VERTEX
8
0
10
340.000000
20
197.133333
30
0.000000
0
VERTEX
8
0
10
337.000000
20
197.133333
30
0.000000
0
VERTEX
8
0
10
337.000000
20
212.066667
30
0.000000
0
VERTEX
8
0
10
340.000000
20
212.066667
30
0.000000
0
VERTEX
8
0
10
340.000000
20
227.000000
30
0.000000
0
VERTEX
8
0
10
340.000000
20
230.000000
30
0.000000
0
VERTEX
8
0
10
337.000000
20
230.000000
30
0.000000
0
VERTEX
8
0
10
321.095238
20
230.000000
30
0.000000
0
VERTEX
8
0
10
321.095238
20
227.000000
30
0.000000
0
VERTEX
8
0
10
305.190476
20
227.000000
30
0.000000
0
VERTEX
8
0
10
305.190476
20
230.000000
30
0.000000
0
VERTEX
8
0
10
289.285714
20
230.000000
30
0.000000
0
VERTEX
8
0
10
289.285714
20
227.000000
30
0.000000
0
VERTEX
8
0
10
273.380952
20
227.000000
30
0.000000
0
VERTEX
8
0
10
273.380952
20
230.000000
30
0.000000
0
VERTEX
8
0
10
257.476190
20
230.000000
30
0.000000
0
VERTEX
8
0
10
257.476190
20
227.000000
30
0.000000
0
VERTEX
8
0
10
241.571429
20
227.000000
30
0.000000
0
VERTEX
8
0
10
241.571429
20
230.000000
30
0.000000
0
VERTEX
8
0
10
225.666667
20
230.000000
30
0.000000
0
VERTEX
8
0
10
225.666667
20
227.000000
30
0.000000
0
VERTEX
8
0
10
209.761905
20
227.000000
30
0.000000
0
VERTEX
8
0
10
209.761905
20
230.000000
30
0.000000
0
VERTEX
8
0
10
193.857143
20
230.000000
30
0.000000
0
VERTEX
8
0
10
193.857143
20
227.000000
30
0.000000
0
VERTEX
8
0
10
177.952381
20
227.000000
30
0.000000
0
VERTEX
8
0
10
177.952381
20
230.000000
30
0.000000
0
VERTEX
8
0
10
162.047619
20
230.000000
30
0.000000
0
VERTEX
8
0
10
162.047619
20
227.000000
30
0.000000
0
VERTEX
8
0
10
146.142857
20
227.000000
30
0.000000
0
VERTEX
8
0
10
146.142857
20
230.000000
30
0.000000
0
VERTEX
8
0
10
130.238095
20
230.000000
30
0.000000
0
VERTEX
8
0
10
130.238095
20
227.000000
30
0.000000
0
VERTEX
8
0
10
114.333333
20
227.000000
30
0.000000
0
VERTEX
8
0
10
114.333333
20
230.000000
30
0.000000
0
VERTEX
8
0
10
98.428571
20
230.000000
30
0.000000
0
VERTEX
8
0
10
98.428571
20
227.000000
30
0.000000
0
VERTEX
8
0
10
82.523810
20
227.000000
30
0.000000
0
VERTEX
8
0
10
82.523810
20
230.000000
30
0.000000
0
VERTEX
8
0
10
66.619048
20
230.000000
30
0.000000
0
VERTEX
8
0
10
66.619048
20
227.000000
30
0.000000
0
VERTEX
8
0
10
50.714286
20
227.000000
30
0.000000
0
VERTEX
8
0
10
50.714286
20
230.000000
30
0.000000
0
VERTEX
8
0
10
34.809524
20
230.000000
30
0.000000
0
VERTEX
8
0
10
34.809524
20
227.000000
30
0.000000
0
VERTEX
8
0
10
18.904762
20
227.000000
30
0.000000
0
VERTEX
8
0
10
18.904762
20
230.000000
30
0.000000
0
VERTEX
8
0
10
0.000000
20
230.000000
30
0.000000
0
SEQEND
8
0
0
POLYLINE
8
0
6
Continuous
70
0
66
 1
10
0.0
20
0.0
30
0.000000
0
VERTEX
8
0
10
-350.000000
20
75.000000
30
0.000000
0
VERTEX
8
0
10
-350.000000
20
64.600000
30
0.000000
0
VERTEX
8
0
10
-347.000000
20
64.600000
30
0.000000
0
VERTEX
8
0
10
-347.000000
20
54.200000
30
0.000000
0
VERTEX
8
0
10
-350.000000
20
54.200000
30
0.000000
0
VERTEX
8
0
10
-350.000000
20
43.800000
30
0.000000
0
VERTEX
8
0
10
-347.000000
20
43.800000
30
0.000000
0
VERTEX
8
0
10
-347.000000
20
33.400000
30
0.000000
0
VERTEX
8
0
10
-350.000000
20
33.400000
30
0.000000
0
VERTEX
8
0
10
-350.000000
20
23.000000
30
0.000000
0
VERTEX
8
0
10
-347.000000
20
23.000000
30
0.000000
0
VERTEX
8
0
10
-332.041667
20
23.000000
30
0.000000
0
VERTEX
8
0
10
-332.041667
20
20.000000
30
0.000000
0
VERTEX
8
0
10
-317.158333
20
20.000000
30
0.000000
0
VERTEX
8
0
10
-317.158333
20
23.000000
30
0.000000
0
VERTEX
8
0
10
-302.175000
20
23.000000
30
0.000000
0
VERTEX
8
0
10
-302.175000
20
20.000000
30
0.000000
0
VERTEX
8
0
10
-287.291667
20
20.000000
30
0.000000
0
VERTEX
8
0
10
-287.291667
20
23.000000
30
0.000000
0
VERTEX
8
0
10
-272.308333
20
23.000000
30
0.000000
0
VERTEX
8
0
10
-272.308333
20
20.000000
30
0.000000
0
VERTEX
8
0
10
-257.425000
20
20.000000
30
0.000000
0
VERTEX
8
0
10
-257.425000
20
23.000000
30
0.000000
0
VERTEX
8
0
10
-242.441667
20
23.000000
30
0.000000
0
VERTEX
8
0
10
-242.441667
20
20.000000
30
0.000000
0
VERTEX
8
0
10
-227.558333
20
20.000000
30
0.000000
0
VERTEX
8
0
10
-227.558333
20
23.000000
30
0.000000
0
VERTEX
8
0
10
-212.575000
20
23.000000
30
0.000000
0
VERTEX
8
0
10
-212.575000
20
20.000000
30
0.000000
0
VERTEX
8
0
10
-197.691667
20
20.000000
30
0.000000
0
VERTEX
8
0
10
-197.691667
20
23.000000
30
0.000000
0
VERTEX
8
0
10
-182.708333
20
23.000000
30
0.000000
0
VERTEX
8
0
10
-182.708333
20
20.000000
30
0.000000
0
VERTEX
8
0
10
-167.825000
20
20.000000
30
0.000000
0
VERTEX
8
0
10
-167.825000
20
23.000000
30
0.000000
0
VERTEX
8
0
10
-152.841667
20
23.000000
30
0.000000
0
VERTEX
8
0
10
-152.841667
20
20.000000
30
0.000000
0
VERTEX
8
0
10
-137.958333
20
20.000000
30
0.000000
0
VERTEX
8
0
10
-137.958333
20
23.000000
30
0.000000
0
VERTEX
8
0
10
-123.000000
20
23.000000
30
0.000000
0
VERTEX
8
0
10
-120.000000
20
23.000000
30
0.000000
0
VERTEX
8
0
10
-120.000000
20
33.400000
30
0.000000
0
VERTEX
8
0
10
-123.000000
20
33.400000
30
0.000000
0
VERTEX
8
0
10
-123.000000
20
43.800000
30
0.000000
0
VERTEX
8
0
10
-120.000000
20
43.800000
30
0.000000
0
VERTEX
8
0
10
-120.000000
20
54.200000
30
0.000000
0
VERTEX
8
0
10
-123.000000
20
54.200000
30
0.000000
0
VERTEX
8
0
10
-123.000000
20
64.600000
30
0.000000
0
VERTEX
8
0
10
-120.000000
20
64.600000
30
0.000000
0
VERTEX
8
0
10
-120.000000
20
75.000000
30
0.000000
0
VERTEX
8
0
10
-184.999000
20
75.000000
30
0.000000
42
0.414214
0
VERTEX
8
0
10
-190.000000
20
70.001000
30
0.000000
0
VERTEX
8
0
10
-190.000000
20
55.001000
30
0.000000
42
-0.414331
0
VERTEX
8
0
10
-195.001000
20
50.000000
30
0.000000
0
VERTEX
8
0
10
-274.999000
20
50.000000
30
0.000000
42
-0.414214
0
VERTEX
8
0
10
-280.000000
20
54.999000
30
0.000000
0
VERTEX
8
0
10
-280.000000
20
69.999000
30
0.000000
42
0.414331
0
VERTEX
8
0
10
-285.001000
20
75.000000
30
0.000000
0
VERTEX
8
0
10
-350.000000
20
75.000000
30
0.000000
0
SEQEND
8
0
0
POLYLINE
8
0
6
Continuous
70
0
66
 1
10
0.0
20
0.0
30
0.000000
0
VERTEX
8
0
10
0.000000
20
-20.000000
30
0.000000
0
VERTEX
8
0
10
0.000000
20
-30.400000
30
0.000000
0
VERTEX
8
0
10
3.000000
20
-30.400000
30
0.000000
0
VERTEX
8
0
10
3.000000
20
-40.800000
30
0.000000
0
VERTEX
8
0
10
0.000000
20
-40.800000
30
0.000000
0
VERTEX
8
0
10
0.000000
20
-51.200000
30
0.000000
0
VERTEX
8
0
10
3.000000
20
-51.200000
30
0.000000
0
VERTEX
8
0
10
3.000000
20
-61.600000
30
0.000000
0
VERTEX
8
0
10
0.000000
20
-61.600000
30
0.000000
0
VERTEX
8
0
10
0.000000
20
-72.000000
30
0.000000
0
VERTEX
8
0
10
3.000000
20
-72.000000
30
0.000000
0
VERTEX
8
0
10
17.958333
20
-72.000000
30
0.000000
0
VERTEX
8
0
10
17.958333
20
-75.000000
30
0.000000
0
VERTEX
8
0
10
32.841667
20
-75.000000
30
0.000000
0
VERTEX
8
0
10
32.841667
20
-72.000000
30
0.000000
0
VERTEX
8
0
10
47.825000
20
-72.000000
30
0.000000
0
VERTEX
8
0
10
47.825000
20
-75.000000
30
0.000000
0
VERTEX
8
0
10
62.708333
20
-75.000000
30
0.000000
0
VERTEX
8
0
10
62.708333
20
-72.000000
30
0.000000
0
VERTEX
8
0
10
77.691667
20
-72.000000
30
0.000000
0
VERTEX
8
0
10
77.691667
20
-75.000000
30
0.000000
0
VERTEX
8
0
10
92.575000
20
-75.000000
30
0.000000
0
VERTEX
8
0
10
92.575000
20
-72.000000
30
0.000000
0
VERTEX
8
0
10
107.558333
20
-72.000000
30
0.000000
0
VERTEX
8
0
10
107.558333
20
-75.000000
30
0.000000
0
VERTEX
8
0
10
122.441667
20
-75.000000
30
0.000000
0
VERTEX
8
0
10
122.441667
20
-72.000000
30
0.000000
0
VERTEX
8
0
10
137.425000
20
-72.000000
30
0.000000
0
VERTEX
8
0
10
137.425000
20
-75.000000
30
0.000000
0
VERTEX
8
0
10
152.308333
20
-75.000000
30
0.000000
0
VERTEX
8
0
10
152.308333
20
-72.000000
30
0.000000
0
VERTEX
8
0
10
167.291667
20
-72.000000
30
0.000000
0
VERTEX
8
0
10
167.291667
20
-75.000000
30
0.000000
0
VERTEX
8
0
10
182.175000
20
-75.000000
30
0.000000
0
VERTEX
8
0
10
182.175000
20
-72.000000
30
0.000000
0
VERTEX
8
0
10
197.158333
20
-72.000000
30
0.000000
0
VERTEX
8
0
10
197.158333
20
-75.000000
30
0.000000
0
VERTEX
8
0
10
212.041667
20
-75.000000
30
0.000000
0
VERTEX
8
0
10
212.041667
20
-72.000000
30
0.000000
0
VERTEX
8
0
10
227.000000
20
-72.000000
30
0.000000
0
VERTEX
8
0
10
230.000000
20
-72.000000
30
0.000000
0
VERTEX
8
0
10
230.000000
20
-61.600000
30
0.000000
0
VERTEX
8
0
10
227.000000
20
-61.600000
30
0.000000
0
VERTEX
8
0
10
227.000000
20
-51.200000
30
0.000000
0
VERTEX
8
0
10
230.000000
20
-51.200000
30
0.000000
0
VERTEX
8
0
10
230.000000
20
-40.800000
30
0.000000
0
VERTEX
8
0
10
227.000000
20
-40.800000
30
0.000000
0
VERTEX
8
0
10
227.000000
20
-30.400000
30
0.000000
0
VERTEX
8
0
10
230.000000
20
-30.400000
30
0.000000
0
VERTEX
8
0
10
230.000000
20
-20.000000
30
0.000000
0
VERTEX
8
0
10
0.000000
20
-20.000000
30
0.000000
0
SEQEND
8
0
0
ENDSEC
0
EOF
