0
SECTION
2
HEADER
0
ENDSEC
0
SECTION
2
TABLES
0
TABLE
2
LTYPE
0
LTYPE
2
Continuous
70
0
3
Solid line
72
65
73
0
40
0.000000
0
ENDTAB
0
TABLE
2
LAYER
0
LAYER
2
0
70
0
62
7
6
Continuous
0
ENDTAB
0
TABLE
2
STYLE
0
STYLE
2
Standard
3
Arial
70
0
71
0
40
5.000000
41
1.000000
42
5.000000
50
0.000000
0
ENDTAB
0
TABLE
2
DIMSTYLE
0
DIMSTYLE
2
Standard
70
0
3

4

5

6
CLOSEDFILLED
7
CLOSEDFILLED
40
1.000000
41
2.000000
42
1.000000
43
5.000000
44
2.000000
45
0.000000
46
0.000000
47
0.000000
48
0.000000
140
5.000000
141
2.000000
142
0.000000
143
25.400000
144
1.000000
145
0.000000
146
1.000000
147
2.000000
71
0
72
0
73
0
74
1
75
0
76
0
77
0
78
0
170
0
171
4
172
0
173
1
174
0
175
0
176
0
177
-2
178
-2
271
4
272
4
273
1
274
4
275
0
280
0
281
0
282
0
283
1
288
0
0
ENDTAB
0
ENDSEC
0
SECTION
2
BLOCKS
0
BLOCK
8
0
2
_CLOSEDFILLED
70
0
10
0.000000
20
0.000000
3
_CLOSEDFILLED
0
SOLID
8
0
10
-1.000000
20
0.166667
30
0.000000
11
-1.000000
21
-0.166667
31
0.000000
12
0.000000
22
0.000000
32
0.000000
13
0.000000
23
0.000000
33
0.000000
0
ENDBLK
0
BLOCK
8
0
2
_CLOSEDBLANK
70
0
10
0.000000
20
0.000000
3
_CLOSEDBLANK
0
LINE
8
0
10
-1.000000
20
0.166667
30
0.000000
11
0.000000
21
0.000000
31
0.000000
0
LINE
8
0
10
0.000000
20
0.000000
30
0.000000
11
-1.000000
21
-0.166667
31
0.000000
0
LINE
8
0
10
-1.000000
20
0.166667
30
0.000000
11
-1.000000
21
-0.166667
31
0.000000
0
ENDBLK
0
BLOCK
8
0
2
_CLOSED
70
0
10
0.000000
20
0.000000
3
_CLOSED
0
LINE
8
0
10
-1.000000
20
0.166667
30
0.000000
11
0.000000
21
0.000000
31
0.000000
0
LINE
8
0
10
0.000000
20
0.000000
30
0.000000
11
-1.000000
21
-0.166667
31
0.000000
0
LINE
8
0
10
-1.000000
20
0.166667
30
0.000000
11
-1.000000
21
-0.166667
31
0.000000
0
LINE
8
0
10
0.000000
20
0.000000
30
0.000000
11
-1.000000
21
0.000000
31
0.000000
0
ENDBLK
0
BLOCK
8
0
2
_DOT
70
0
10
0.000000
20
0.000000
3
_DOT
0
POLYLINE
8
0
70
1
66
 1
10
0.0
20
0.0
30
0.000000
0
VERTEX
8
0
10
0.250000
20
0.000000
30
0.000000
42
1.000000
0
VERTEX
8
0
10
-0.250000
20
0.000000
30
0.000000
42
1.000000
0
SEQEND
8
0
0
LINE
8
0
10
-0.500000
20
0.000000
30
0.000000
11
-1.000000
21
0.000000
31
0.000000
0
ENDBLK
0
BLOCK
8
0
2
_ARCHTICK
70
0
10
0.000000
20
0.000000
3
_ARCHTICK
0
POLYLINE
8
0
70
0
66
 1
10
0.0
20
0.0
30
0.000000
0
VERTEX
8
0
10
0.500000
20
0.500000
30
0.000000
0
VERTEX
8
0
10
-0.500000
20
-0.500000
30
0.000000
0
SEQEND
8
0
0
ENDBLK
0
BLOCK
8
0
2
_OBLIQUE
70
0
10
0.000000
20
0.000000
3
_OBLIQUE
0
LINE
8
0
10
-0.500000
20
-0.500000
30
0.000000
11
0.500000
21
0.500000
31
0.000000
0
ENDBLK
0
BLOCK
8
0
2
_OPEN
70
0
10
0.000000
20
0.000000
3
_OPEN
0
LINE
8
0
10
-1.000000
20
0.166667
30
0.000000
11
0.000000
21
0.000000
31
0.000000
0
LINE
8
0
10
-1.000000
20
-0.166667
30
0.000000
11
0.000000
21
0.000000
31
0.000000
0
LINE
8
0
10
0.000000
20
0.000000
30
0.000000
11
-1.000000
21
0.000000
31
0.000000
0
ENDBLK
0
BLOCK
8
0
2
_ORIGIN
70
0
10
0.000000
20
0.000000
3
_ORIGIN
0
CIRCLE
8
0
10
0.000000
20
0.000000
40
0.500000
0
LINE
8
0
10
0.000000
20
0.000000
30
0.000000
11
-1.000000
21
0.000000
31
0.000000
0
ENDBLK
0
BLOCK
8
0
2
_ORIGIN2
70
0
10
0.000000
20
0.000000
3
_ORIGIN2
0
CIRCLE
8
0
10
0.000000
20
0.000000
40
0.500000
0
CIRCLE
8
0
10
0.000000
20
0.000000
40
0.250000
0
LINE
8
0
10
-0.500000
20
0.000000
30
0.000000
11
-1.000000
21
0.000000
31
0.000000
0
ENDBLK
0
BLOCK
8
0
2
_OPEN90
70
0
10
0.000000
20
0.000000
3
_OPEN90
0
LINE
8
0
10
-0.500000
20
0.500000
30
0.000000
11
0.000000
21
0.000000
31
0.000000
0
LINE
8
0
10
0.000000
20
0.000000
30
0.000000
11
-0.500000
21
-0.500000
31
0.000000
0
LINE
8
0
10
0.000000
20
0.000000
30
0.000000
11
-1.000000
21
0.000000
31
0.000000
0
ENDBLK
0
BLOCK
8
0
2
_OPEN30
70
0
10
0.000000
20
0.000000
3
_OPEN30
0
LINE
8
0
10
-1.000000
20
0.267949
30
0.000000
11
0.000000
21
0.000000
31
0.000000
0
LINE
8
0
10
0.000000
20
0.000000
30
0.000000
11
-1.000000
21
-0.267949
31
0.000000
0
LINE
8
0
10
0.000000
20
0.000000
30
0.000000
11
-1.000000
21
0.000000
31
0.000000
0
ENDBLK
0
BLOCK
8
0
2
_DOTSMALL
70
0
10
0.000000
20
0.000000
3
_DOTSMALL
0
POLYLINE
8
0
70
1
66
 1
10
0.0
20
0.0
30
0.000000
0
VERTEX
8
0
10
0.062500
20
0.000000
30
0.000000
42
1.000000
0
VERTEX
8
0
10
-0.062500
20
0.000000
30
0.000000
42
1.000000
0
SEQEND
8
0
0
ENDBLK
0
BLOCK
8
0
2
_DOTBLANK
70
0
10
0.000000
20
0.000000
3
_DOTBLANK
0
CIRCLE
8
0
10
0.000000
20
0.000000
40
0.500000
0
LINE
8
0
10
-0.500000
20
0.000000
30
0.000000
11
-1.000000
21
0.000000
31
0.000000
0
ENDBLK
0
BLOCK
8
0
2
_SMALL
70
0
10
0.000000
20
0.000000
3
_SMALL
0
CIRCLE
8
0
10
0.000000
20
0.000000
40
0.250000
0
ENDBLK
0
BLOCK
8
0
2
_BOXBLANK
70
0
10
0.000000
20
0.000000
3
_BOXBLANK
0
LINE
8
0
10
-0.500000
20
-0.500000
30
0.000000
11
0.500000
21
-0.500000
31
0.000000
0
LINE
8
0
10
0.500000
20
-0.500000
30
0.000000
11
0.500000
21
0.500000
31
0.000000
0
LINE
8
0
10
0.500000
20
0.500000
30
0.000000
11
-0.500000
21
0.500000
31
0.000000
0
LINE
8
0
10
-0.500000
20
0.500000
30
0.000000
11
-0.500000
21
-0.500000
31
0.000000
0
LINE
8
0
10
-0.500000
20
0.000000
30
0.000000
11
-1.000000
21
0.000000
31
0.000000
0
ENDBLK
0
BLOCK
8
0
2
_BOXFILLED
70
0
10
0.000000
20
0.000000
3
_BOXFILLED
0
SOLID
8
0
10
-0.500000
20
0.500000
30
0.000000
11
0.500000
21
0.500000
31
0.000000
12
-0.500000
22
-0.500000
32
0.000000
13
0.500000
23
-0.500000
33
0.000000
0
LINE
8
0
10
-0.500000
20
0.000000
30
0.000000
11
-1.000000
21
0.000000
31
0.000000
0
ENDBLK
0
BLOCK
8
0
2
_DATUMBLANK
70
0
10
0.000000
20
0.000000
3
_DATUMBLANK
0
LINE
8
0
10
0.000000
20
0.577350
30
0.000000
11
-1.000000
21
0.000000
31
0.000000
0
LINE
8
0
10
-1.000000
20
0.000000
30
0.000000
11
0.000000
21
-0.577350
31
0.000000
0
LINE
8
0
10
0.000000
20
-0.577350
30
0.000000
11
0.000000
21
0.577350
31
0.000000
0
ENDBLK
0
BLOCK
8
0
2
_DATUMFILLED
70
0
10
0.000000
20
0.000000
3
_DATUMFILLED
0
SOLID
8
0
10
0.000000
20
0.577350
30
0.000000
11
-1.000000
21
0.000000
31
0.000000
12
0.000000
22
-0.577350
32
0.000000
13
0.000000
23
-0.577350
33
0.000000
0
ENDBLK
0
BLOCK
8
0
2
_INTEGRAL
70
0
10
0.000000
20
0.000000
3
_INTEGRAL
0
ARC
8
0
10
0.444888
20
-0.091335
40
0.454167
50
102.000000
51
168.000000
0
ARC
8
0
10
-0.444888
20
0.091335
40
0.454167
50
282.000000
51
348.000000
0
ENDBLK
0
BLOCK
8
0
2
_NONE
70
0
10
0.000000
20
0.000000
3
_NONE
0
ENDBLK
0
ENDSEC
0
SECTION
2
ENTITIES
0
POLYLINE
8
0
6
Continuous
70
0
66
 1
10
0.0
20
0.0
30
0.000000
0
VERTEX
8
0
10
-16.344977
20
3.363997
30
0.000000
0
VERTEX
8
0
10
-16.344977
20
12.948997
30
0.000000
0
VERTEX
8
0
10
-13.344977
20
12.948997
30
0.000000
0
VERTEX
8
0
10
-13.344977
20
22.458997
30
0.000000
0
VERTEX
8
0
10
-16.344977
20
22.458997
30
0.000000
0
VERTEX
8
0
10
-16.344977
20
32.068997
30
0.000000
0
VERTEX
8
0
10
-13.344977
20
32.068997
30
0.000000
0
VERTEX
8
0
10
-13.344977
20
41.578997
30
0.000000
0
VERTEX
8
0
10
-16.344977
20
41.578997
30
0.000000
0
VERTEX
8
0
10
-16.344977
20
51.188997
30
0.000000
0
VERTEX
8
0
10
-13.344977
20
51.188997
30
0.000000
0
VERTEX
8
0
10
-13.344977
20
60.698997
30
0.000000
0
VERTEX
8
0
10
-16.344977
20
60.698997
30
0.000000
0
VERTEX
8
0
10
-16.344977
20
70.308997
30
0.000000
0
VERTEX
8
0
10
-13.344977
20
70.308997
30
0.000000
0
VERTEX
8
0
10
-13.344977
20
79.818997
30
0.000000
0
VERTEX
8
0
10
-16.344977
20
79.818997
30
0.000000
0
VERTEX
8
0
10
-16.344977
20
89.428997
30
0.000000
0
VERTEX
8
0
10
-13.344977
20
89.428997
30
0.000000
0
VERTEX
8
0
10
-13.344977
20
98.938997
30
0.000000
0
VERTEX
8
0
10
-16.344977
20
98.938997
30
0.000000
0
VERTEX
8
0
10
-16.344977
20
108.548997
30
0.000000
0
VERTEX
8
0
10
-13.344977
20
108.548997
30
0.000000
0
VERTEX
8
0
10
-13.344977
20
118.058997
30
0.000000
0
VERTEX
8
0
10
-16.344977
20
118.058997
30
0.000000
0
VERTEX
8
0
10
-16.344977
20
127.668997
30
0.000000
0
VERTEX
8
0
10
-13.344977
20
127.668997
30
0.000000
0
VERTEX
8
0
10
-13.344977
20
137.178997
30
0.000000
0
VERTEX
8
0
10
-16.344977
20
137.178997
30
0.000000
0
VERTEX
8
0
10
-16.344977
20
146.788997
30
0.000000
0
VERTEX
8
0
10
-13.344977
20
146.788997
30
0.000000
0
VERTEX
8
0
10
-13.344977
20
156.298997
30
0.000000
0
VERTEX
8
0
10
-16.344977
20
156.298997
30
0.000000
0
VERTEX
8
0
10
-16.344977
20
165.908997
30
0.000000
0
VERTEX
8
0
10
-13.344977
20
165.908997
30
0.000000
0
VERTEX
8
0
10
-13.344977
20
175.418997
30
0.000000
0
VERTEX
8
0
10
-16.344977
20
175.418997
30
0.000000
0
VERTEX
8
0
10
-16.344977
20
185.028997
30
0.000000
0
VERTEX
8
0
10
-13.344977
20
185.028997
30
0.000000
0
VERTEX
8
0
10
-13.344977
20
194.538997
30
0.000000
0
VERTEX
8
0
10
-16.344977
20
194.538997
30
0.000000
0
VERTEX
8
0
10
-16.344977
20
204.148997
30
0.000000
0
VERTEX
8
0
10
-13.344977
20
204.148997
30
0.000000
0
VERTEX
8
0
10
-13.344977
20
213.658997
30
0.000000
0
VERTEX
8
0
10
-16.344977
20
213.658997
30
0.000000
0
VERTEX
8
0
10
-16.344977
20
223.268997
30
0.000000
0
VERTEX
8
0
10
-13.344977
20
223.268997
30
0.000000
0
VERTEX
8
0
10
-13.344977
20
232.778997
30
0.000000
0
VERTEX
8
0
10
-16.344977
20
232.778997
30
0.000000
0
VERTEX
8
0
10
-16.344977
20
242.363997
30
0.000000
0
SEQEND
8
0
0
POLYLINE
8
0
6
Continuous
70
0
66
 1
10
0.0
20
0.0
30
0.000000
0
VERTEX
8
0
10
-16.344977
20
242.363997
30
0.000000
0
VERTEX
8
0
10
-26.852735
20
242.363997
30
0.000000
0
VERTEX
8
0
10
-26.852735
20
245.363997
30
0.000000
0
VERTEX
8
0
10
-37.285494
20
245.363997
30
0.000000
0
VERTEX
8
0
10
-37.285494
20
242.363997
30
0.000000
0
VERTEX
8
0
10
-47.818253
20
242.363997
30
0.000000
0
VERTEX
8
0
10
-47.818253
20
245.363997
30
0.000000
0
VERTEX
8
0
10
-58.251011
20
245.363997
30
0.000000
0
VERTEX
8
0
10
-58.251011
20
242.363997
30
0.000000
0
VERTEX
8
0
10
-68.783770
20
242.363997
30
0.000000
0
VERTEX
8
0
10
-68.783770
20
245.363997
30
0.000000
0
VERTEX
8
0
10
-79.216528
20
245.363997
30
0.000000
0
VERTEX
8
0
10
-79.216528
20
242.363997
30
0.000000
0
VERTEX
8
0
10
-89.749287
20
242.363997
30
0.000000
0
VERTEX
8
0
10
-89.749287
20
245.363997
30
0.000000
0
VERTEX
8
0
10
-100.182046
20
245.363997
30
0.000000
0
VERTEX
8
0
10
-100.182046
20
242.363997
30
0.000000
0
VERTEX
8
0
10
-110.714804
20
242.363997
30
0.000000
0
VERTEX
8
0
10
-110.714804
20
245.363997
30
0.000000
0
VERTEX
8
0
10
-121.147563
20
245.363997
30
0.000000
0
VERTEX
8
0
10
-121.147563
20
242.363997
30
0.000000
0
VERTEX
8
0
10
-131.680322
20
242.363997
30
0.000000
0
VERTEX
8
0
10
-131.680322
20
245.363997
30
0.000000
0
VERTEX
8
0
10
-142.113080
20
245.363997
30
0.000000
0
VERTEX
8
0
10
-142.113080
20
242.363997
30
0.000000
0
VERTEX
8
0
10
-152.645839
20
242.363997
30
0.000000
0
VERTEX
8
0
10
-152.645839
20
245.363997
30
0.000000
0
VERTEX
8
0
10
-163.078597
20
245.363997
30
0.000000
0
VERTEX
8
0
10
-163.078597
20
242.363997
30
0.000000
0
VERTEX
8
0
10
-173.611356
20
242.363997
30
0.000000
0
VERTEX
8
0
10
-173.611356
20
245.363997
30
0.000000
0
VERTEX
8
0
10
-184.044115
20
245.363997
30
0.000000
0
VERTEX
8
0
10
-184.044115
20
242.363997
30
0.000000
0
VERTEX
8
0
10
-194.576873
20
242.363997
30
0.000000
0
VERTEX
8
0
10
-194.576873
20
245.363997
30
0.000000
0
VERTEX
8
0
10
-205.009632
20
245.363997
30
0.000000
0
VERTEX
8
0
10
-205.009632
20
242.363997
30
0.000000
0
VERTEX
8
0
10
-215.542391
20
242.363997
30
0.000000
0
VERTEX
8
0
10
-215.542391
20
245.363997
30
0.000000
0
VERTEX
8
0
10
-225.975149
20
245.363997
30
0.000000
0
VERTEX
8
0
10
-225.975149
20
242.363997
30
0.000000
0
VERTEX
8
0
10
-236.507908
20
242.363997
30
0.000000
0
VERTEX
8
0
10
-236.507908
20
245.363997
30
0.000000
0
VERTEX
8
0
10
-246.940666
20
245.363997
30
0.000000
0
VERTEX
8
0
10
-246.940666
20
242.363997
30
0.000000
0
VERTEX
8
0
10
-257.473425
20
242.363997
30
0.000000
0
VERTEX
8
0
10
-257.473425
20
245.363997
30
0.000000
0
VERTEX
8
0
10
-267.906184
20
245.363997
30
0.000000
0
VERTEX
8
0
10
-267.906184
20
242.363997
30
0.000000
0
VERTEX
8
0
10
-278.438942
20
242.363997
30
0.000000
0
VERTEX
8
0
10
-278.438942
20
245.363997
30
0.000000
0
VERTEX
8
0
10
-288.871701
20
245.363997
30
0.000000
0
VERTEX
8
0
10
-288.871701
20
242.363997
30
0.000000
0
VERTEX
8
0
10
-299.404459
20
242.363997
30
0.000000
0
VERTEX
8
0
10
-299.404459
20
245.363997
30
0.000000
0
VERTEX
8
0
10
-309.837218
20
245.363997
30
0.000000
0
VERTEX
8
0
10
-309.837218
20
242.363997
30
0.000000
0
VERTEX
8
0
10
-320.344977
20
242.363997
30
0.000000
0
SEQEND
8
0
0
POLYLINE
8
0
6
Continuous
70
0
66
 1
10
0.0
20
0.0
30
0.000000
0
VERTEX
8
0
10
181.297268
20
-0.385766
30
0.000000
0
VERTEX
8
0
10
181.297268
20
12.174234
30
0.000000
0
VERTEX
8
0
10
178.297268
20
12.174234
30
0.000000
0
VERTEX
8
0
10
178.297268
20
21.734234
30
0.000000
0
VERTEX
8
0
10
181.297268
20
21.734234
30
0.000000
0
VERTEX
8
0
10
181.297268
20
31.294234
30
0.000000
0
VERTEX
8
0
10
178.297268
20
31.294234
30
0.000000
0
VERTEX
8
0
10
178.297268
20
40.854234
30
0.000000
0
VERTEX
8
0
10
181.297268
20
40.854234
30
0.000000
0
VERTEX
8
0
10
181.297268
20
50.414234
30
0.000000
0
VERTEX
8
0
10
178.297268
20
50.414234
30
0.000000
0
VERTEX
8
0
10
178.297268
20
59.974234
30
0.000000
0
VERTEX
8
0
10
181.297268
20
59.974234
30
0.000000
0
VERTEX
8
0
10
181.297268
20
69.534234
30
0.000000
0
VERTEX
8
0
10
178.297268
20
69.534234
30
0.000000
0
VERTEX
8
0
10
178.297268
20
79.094234
30
0.000000
0
VERTEX
8
0
10
181.297268
20
79.094234
30
0.000000
0
VERTEX
8
0
10
181.297268
20
88.654234
30
0.000000
0
VERTEX
8
0
10
178.297268
20
88.654234
30
0.000000
0
VERTEX
8
0
10
178.297268
20
98.214234
30
0.000000
0
VERTEX
8
0
10
181.297268
20
98.214234
30
0.000000
0
VERTEX
8
0
10
181.297268
20
107.774234
30
0.000000
0
VERTEX
8
0
10
178.297268
20
107.774234
30
0.000000
0
VERTEX
8
0
10
178.297268
20
117.334234
30
0.000000
0
VERTEX
8
0
10
181.297268
20
117.334234
30
0.000000
0
VERTEX
8
0
10
181.297268
20
126.894234
30
0.000000
0
VERTEX
8
0
10
178.297268
20
126.894234
30
0.000000
0
VERTEX
8
0
10
178.297268
20
136.454234
30
0.000000
0
VERTEX
8
0
10
181.297268
20
136.454234
30
0.000000
0
VERTEX
8
0
10
181.297268
20
146.014234
30
0.000000
0
VERTEX
8
0
10
178.297268
20
146.014234
30
0.000000
0
VERTEX
8
0
10
178.297268
20
155.574234
30
0.000000
0
VERTEX
8
0
10
181.297268
20
155.574234
30
0.000000
0
VERTEX
8
0
10
181.297268
20
165.134234
30
0.000000
0
VERTEX
8
0
10
178.297268
20
165.134234
30
0.000000
0
VERTEX
8
0
10
178.297268
20
174.694234
30
0.000000
0
VERTEX
8
0
10
181.297268
20
174.694234
30
0.000000
0
VERTEX
8
0
10
181.297268
20
184.254234
30
0.000000
0
VERTEX
8
0
10
178.297268
20
184.254234
30
0.000000
0
VERTEX
8
0
10
178.297268
20
193.814234
30
0.000000
0
VERTEX
8
0
10
181.297268
20
193.814234
30
0.000000
0
VERTEX
8
0
10
181.297268
20
203.374234
30
0.000000
0
VERTEX
8
0
10
178.297268
20
203.374234
30
0.000000
0
VERTEX
8
0
10
178.297268
20
212.934234
30
0.000000
0
VERTEX
8
0
10
181.297268
20
212.934234
30
0.000000
0
VERTEX
8
0
10
181.297268
20
222.494234
30
0.000000
0
VERTEX
8
0
10
178.297268
20
222.494234
30
0.000000
0
VERTEX
8
0
10
178.297268
20
232.054234
30
0.000000
0
VERTEX
8
0
10
181.297268
20
232.054234
30
0.000000
0
VERTEX
8
0
10
181.297268
20
241.614234
30
0.000000
0
VERTEX
8
0
10
181.297268
20
244.614234
30
0.000000
0
SEQEND
8
0
0
POLYLINE
8
0
6
Continuous
70
0
66
 1
10
0.0
20
0.0
30
0.000000
0
VERTEX
8
0
10
86.297268
20
-0.385766
30
0.000000
0
VERTEX
8
0
10
86.297268
20
12.174234
30
0.000000
0
VERTEX
8
0
10
89.297268
20
12.174234
30
0.000000
0
VERTEX
8
0
10
89.297268
20
21.734234
30
0.000000
0
VERTEX
8
0
10
86.297268
20
21.734234
30
0.000000
0
VERTEX
8
0
10
86.297268
20
31.294234
30
0.000000
0
VERTEX
8
0
10
89.297268
20
31.294234
30
0.000000
0
VERTEX
8
0
10
89.297268
20
40.854234
30
0.000000
0
VERTEX
8
0
10
86.297268
20
40.854234
30
0.000000
0
VERTEX
8
0
10
86.297268
20
50.414234
30
0.000000
0
VERTEX
8
0
10
89.297268
20
50.414234
30
0.000000
0
VERTEX
8
0
10
89.297268
20
59.974234
30
0.000000
0
VERTEX
8
0
10
86.297268
20
59.974234
30
0.000000
0
VERTEX
8
0
10
86.297268
20
69.534234
30
0.000000
0
VERTEX
8
0
10
89.297268
20
69.534234
30
0.000000
0
VERTEX
8
0
10
89.297268
20
79.094234
30
0.000000
0
VERTEX
8
0
10
86.297268
20
79.094234
30
0.000000
0
VERTEX
8
0
10
86.297268
20
88.654234
30
0.000000
0
VERTEX
8
0
10
89.297268
20
88.654234
30
0.000000
0
VERTEX
8
0
10
89.297268
20
98.214234
30
0.000000
0
VERTEX
8
0
10
86.297268
20
98.214234
30
0.000000
0
VERTEX
8
0
10
86.297268
20
107.774234
30
0.000000
0
VERTEX
8
0
10
89.297268
20
107.774234
30
0.000000
0
VERTEX
8
0
10
89.297268
20
117.334234
30
0.000000
0
VERTEX
8
0
10
86.297268
20
117.334234
30
0.000000
0
VERTEX
8
0
10
86.297268
20
126.894234
30
0.000000
0
VERTEX
8
0
10
89.297268
20
126.894234
30
0.000000
0
VERTEX
8
0
10
89.297268
20
136.454234
30
0.000000
0
VERTEX
8
0
10
86.297268
20
136.454234
30
0.000000
0
VERTEX
8
0
10
86.297268
20
146.014234
30
0.000000
0
VERTEX
8
0
10
89.297268
20
146.014234
30
0.000000
0
VERTEX
8
0
10
89.297268
20
155.574234
30
0.000000
0
VERTEX
8
0
10
86.297268
20
155.574234
30
0.000000
0
VERTEX
8
0
10
86.297268
20
165.134234
30
0.000000
0
VERTEX
8
0
10
89.297268
20
165.134234
30
0.000000
0
VERTEX
8
0
10
89.297268
20
174.694234
30
0.000000
0
VERTEX
8
0
10
86.297268
20
174.694234
30
0.000000
0
VERTEX
8
0
10
86.297268
20
184.254234
30
0.000000
0
VERTEX
8
0
10
89.297268
20
184.254234
30
0.000000
0
VERTEX
8
0
10
89.297268
20
193.814234
30
0.000000
0
VERTEX
8
0
10
86.297268
20
193.814234
30
0.000000
0
VERTEX
8
0
10
86.297268
20
203.374234
30
0.000000
0
VERTEX
8
0
10
89.297268
20
203.374234
30
0.000000
0
VERTEX
8
0
10
89.297268
20
212.934234
30
0.000000
0
VERTEX
8
0
10
86.297268
20
212.934234
30
0.000000
0
VERTEX
8
0
10
86.297268
20
222.494234
30
0.000000
0
VERTEX
8
0
10
89.297268
20
222.494234
30
0.000000
0
VERTEX
8
0
10
89.297268
20
232.054234
30
0.000000
0
VERTEX
8
0
10
86.297268
20
232.054234
30
0.000000
0
VERTEX
8
0
10
86.297268
20
241.614234
30
0.000000
0
VERTEX
8
0
10
86.297268
20
244.614234
30
0.000000
0
SEQEND
8
0
0
POLYLINE
8
0
6
Continuous
70
0
66
 1
10
0.0
20
0.0
30
0.000000
0
VERTEX
8
0
10
181.297268
20
-0.385766
30
0.000000
0
VERTEX
8
0
10
168.408379
20
-0.385766
30
0.000000
0
VERTEX
8
0
10
168.408379
20
2.614234
30
0.000000
0
VERTEX
8
0
10
158.519490
20
2.614234
30
0.000000
0
VERTEX
8
0
10
158.519490
20
-0.385766
30
0.000000
0
VERTEX
8
0
10
148.630602
20
-0.385766
30
0.000000
0
VERTEX
8
0
10
148.630602
20
2.614234
30
0.000000
0
VERTEX
8
0
10
138.741713
20
2.614234
30
0.000000
0
VERTEX
8
0
10
138.741713
20
-0.385766
30
0.000000
0
VERTEX
8
0
10
128.852824
20
-0.385766
30
0.000000
0
VERTEX
8
0
10
128.852824
20
2.614234
30
0.000000
0
VERTEX
8
0
10
118.963935
20
2.614234
30
0.000000
0
VERTEX
8
0
10
118.963935
20
-0.385766
30
0.000000
0
VERTEX
8
0
10
109.075046
20
-0.385766
30
0.000000
0
VERTEX
8
0
10
109.075046
20
2.614234
30
0.000000
0
VERTEX
8
0
10
99.186157
20
2.614234
30
0.000000
0
VERTEX
8
0
10
99.186157
20
-0.385766
30
0.000000
0
VERTEX
8
0
10
89.297268
20
-0.385766
30
0.000000
0
VERTEX
8
0
10
86.297268
20
-0.385766
30
0.000000
0
SEQEND
8
0
0
POLYLINE
8
0
6
Continuous
70
0
66
 1
10
0.0
20
0.0
30
0.000000
0
VERTEX
8
0
10
181.297268
20
244.614234
30
0.000000
0
VERTEX
8
0
10
168.408379
20
244.614234
30
0.000000
0
VERTEX
8
0
10
168.408379
20
241.614234
30
0.000000
0
VERTEX
8
0
10
158.519490
20
241.614234
30
0.000000
0
VERTEX
8
0
10
158.519490
20
244.614234
30
0.000000
0
VERTEX
8
0
10
148.630602
20
244.614234
30
0.000000
0
VERTEX
8
0
10
148.630602
20
241.614234
30
0.000000
0
VERTEX
8
0
10
138.741713
20
241.614234
30
0.000000
0
VERTEX
8
0
10
138.741713
20
244.614234
30
0.000000
0
VERTEX
8
0
10
128.852824
20
244.614234
30
0.000000
0
VERTEX
8
0
10
128.852824
20
241.614234
30
0.000000
0
VERTEX
8
0
10
118.963935
20
241.614234
30
0.000000
0
VERTEX
8
0
10
118.963935
20
244.614234
30
0.000000
0
VERTEX
8
0
10
109.075046
20
244.614234
30
0.000000
0
VERTEX
8
0
10
109.075046
20
241.614234
30
0.000000
0
VERTEX
8
0
10
99.186157
20
241.614234
30
0.000000
0
VERTEX
8
0
10
99.186157
20
244.614234
30
0.000000
0
VERTEX
8
0
10
89.297268
20
244.614234
30
0.000000
0
VERTEX
8
0
10
86.297268
20
244.614234
30
0.000000
0
SEQEND
8
0
0
LINE
8
0
6
Continuous
10
-16.344977
20
3.363997
30
0.000000
11
-26.852735
21
3.363997
31
0.000000
0
LINE
8
0
6
Continuous
10
-26.852735
20
3.363997
30
0.000000
11
-26.852735
21
0.363997
31
0.000000
0
LINE
8
0
6
Continuous
10
-26.852735
20
0.363997
30
0.000000
11
-37.285494
21
0.363997
31
0.000000
0
LINE
8
0
6
Continuous
10
-37.285494
20
0.363997
30
0.000000
11
-37.285494
21
3.363997
31
0.000000
0
LINE
8
0
6
Continuous
10
-37.285494
20
3.363997
30
0.000000
11
-47.818253
21
3.363997
31
0.000000
0
LINE
8
0
6
Continuous
10
-47.818253
20
3.363997
30
0.000000
11
-47.818253
21
0.363997
31
0.000000
0
LINE
8
0
6
Continuous
10
-47.818253
20
0.363997
30
0.000000
11
-58.251011
21
0.363997
31
0.000000
0
LINE
8
0
6
Continuous
10
-58.251011
20
0.363997
30
0.000000
11
-58.251011
21
3.363997
31
0.000000
0
LINE
8
0
6
Continuous
10
-58.251011
20
3.363997
30
0.000000
11
-68.783770
21
3.363997
31
0.000000
0
LINE
8
0
6
Continuous
10
-68.783770
20
3.363997
30
0.000000
11
-68.783770
21
0.363997
31
0.000000
0
LINE
8
0
6
Continuous
10
-68.783770
20
0.363997
30
0.000000
11
-79.216528
21
0.363997
31
0.000000
0
LINE
8
0
6
Continuous
10
-79.216528
20
0.363997
30
0.000000
11
-79.216528
21
3.363997
31
0.000000
0
LINE
8
0
6
Continuous
10
-79.216528
20
3.363997
30
0.000000
11
-89.749287
21
3.363997
31
0.000000
0
LINE
8
0
6
Continuous
10
-89.749287
20
3.363997
30
0.000000
11
-89.749287
21
0.363997
31
0.000000
0
LINE
8
0
6
Continuous
10
-89.749287
20
0.363997
30
0.000000
11
-100.182046
21
0.363997
31
0.000000
0
LINE
8
0
6
Continuous
10
-100.182046
20
0.363997
30
0.000000
11
-100.182046
21
3.363997
31
0.000000
0
LINE
8
0
6
Continuous
10
-100.182046
20
3.363997
30
0.000000
11
-110.714804
21
3.363997
31
0.000000
0
LINE
8
0
6
Continuous
10
-110.714804
20
3.363997
30
0.000000
11
-110.714804
21
0.363997
31
0.000000
0
LINE
8
0
6
Continuous
10
-110.714804
20
0.363997
30
0.000000
11
-121.147563
21
0.363997
31
0.000000
0
LINE
8
0
6
Continuous
10
-121.147563
20
0.363997
30
0.000000
11
-121.147563
21
3.363997
31
0.000000
0
LINE
8
0
6
Continuous
10
-121.147563
20
3.363997
30
0.000000
11
-131.680322
21
3.363997
31
0.000000
0
LINE
8
0
6
Continuous
10
-131.680322
20
3.363997
30
0.000000
11
-131.680322
21
0.363997
31
0.000000
0
LINE
8
0
6
Continuous
10
-131.680322
20
0.363997
30
0.000000
11
-142.113080
21
0.363997
31
0.000000
0
LINE
8
0
6
Continuous
10
-142.113080
20
0.363997
30
0.000000
11
-142.113080
21
3.363997
31
0.000000
0
LINE
8
0
6
Continuous
10
-142.113080
20
3.363997
30
0.000000
11
-152.645839
21
3.363997
31
0.000000
0
LINE
8
0
6
Continuous
10
-152.645839
20
3.363997
30
0.000000
11
-152.645839
21
0.363997
31
0.000000
0
LINE
8
0
6
Continuous
10
-152.645839
20
0.363997
30
0.000000
11
-163.078597
21
0.363997
31
0.000000
0
LINE
8
0
6
Continuous
10
-163.078597
20
0.363997
30
0.000000
11
-163.078597
21
3.363997
31
0.000000
0
LINE
8
0
6
Continuous
10
-163.078597
20
3.363997
30
0.000000
11
-173.611356
21
3.363997
31
0.000000
0
LINE
8
0
6
Continuous
10
-173.611356
20
3.363997
30
0.000000
11
-173.611356
21
0.363997
31
0.000000
0
LINE
8
0
6
Continuous
10
-173.611356
20
0.363997
30
0.000000
11
-184.044115
21
0.363997
31
0.000000
0
LINE
8
0
6
Continuous
10
-184.044115
20
0.363997
30
0.000000
11
-184.044115
21
3.363997
31
0.000000
0
POLYLINE
8
0
6
Continuous
70
0
66
 1
10
0.0
20
0.0
30
0.000000
0
VERTEX
8
0
10
-320.344977
20
242.363997
30
0.000000
0
VERTEX
8
0
10
-320.256643
20
238.274809
30
0.000000
0
VERTEX
8
0
10
-320.109839
20
234.289108
30
0.000000
0
VERTEX
8
0
10
-319.905643
20
230.405202
30
0.000000
0
VERTEX
8
0
10
-319.645131
20
226.621395
30
0.000000
0
VERTEX
8
0
10
-319.329381
20
222.935996
30
0.000000
0
VERTEX
8
0
10
-318.959471
20
219.347311
30
0.000000
0
VERTEX
8
0
10
-318.536477
20
215.853645
30
0.000000
0
VERTEX
8
0
10
-318.061476
20
212.453306
30
0.000000
0
VERTEX
8
0
10
-317.535546
20
209.144601
30
0.000000
0
VERTEX
8
0
10
-317.043706
20
206.373103
30
0.000000
0
VERTEX
8
0
10
-316.515733
20
203.666953
30
0.000000
0
VERTEX
8
0
10
-315.952310
20
201.025077
30
0.000000
0
VERTEX
8
0
10
-315.354121
20
198.446400
30
0.000000
0
VERTEX
8
0
10
-314.721850
20
195.929846
30
0.000000
0
VERTEX
8
0
10
-314.056180
20
193.474341
30
0.000000
0
VERTEX
8
0
10
-313.357796
20
191.078811
30
0.000000
0
VERTEX
8
0
10
-312.627380
20
188.742180
30
0.000000
0
VERTEX
8
0
10
-311.865617
20
186.463374
30
0.000000
0
VERTEX
8
0
10
-311.186453
20
184.550406
30
0.000000
0
VERTEX
8
0
10
-310.485077
20
182.678668
30
0.000000
0
VERTEX
8
0
10
-309.761922
20
180.847476
30
0.000000
0
VERTEX
8
0
10
-309.017424
20
179.056149
30
0.000000
0
VERTEX
8
0
10
-308.252015
20
177.304006
30
0.000000
0
VERTEX
8
0
10
-307.466129
20
175.590363
30
0.000000
0
VERTEX
8
0
10
-306.660202
20
173.914538
30
0.000000
0
VERTEX
8
0
10
-305.834665
20
172.275851
30
0.000000
0
VERTEX
8
0
10
-304.989954
20
170.673617
30
0.000000
0
VERTEX
8
0
10
-303.494564
20
168.002976
30
0.000000
0
VERTEX
8
0
10
-301.946015
20
165.434547
30
0.000000
0
VERTEX
8
0
10
-300.346510
20
162.964866
30
0.000000
0
VERTEX
8
0
10
-298.698253
20
160.590470
30
0.000000
0
VERTEX
8
0
10
-297.003446
20
158.307895
30
0.000000
0
VERTEX
8
0
10
-295.264294
20
156.113679
30
0.000000
0
VERTEX
8
0
10
-293.482998
20
154.004358
30
0.000000
0
VERTEX
8
0
10
-291.661762
20
151.976468
30
0.000000
0
VERTEX
8
0
10
-289.802789
20
150.026546
30
0.000000
0
VERTEX
8
0
10
-288.444577
20
148.671260
30
0.000000
0
VERTEX
8
0
10
-287.068826
20
147.353178
30
0.000000
0
VERTEX
8
0
10
-285.676354
20
146.071013
30
0.000000
0
VERTEX
8
0
10
-284.267979
20
144.823479
30
0.000000
0
VERTEX
8
0
10
-282.844520
20
143.609290
30
0.000000
0
VERTEX
8
0
10
-281.406795
20
142.427161
30
0.000000
0
VERTEX
8
0
10
-279.955621
20
141.275806
30
0.000000
0
VERTEX
8
0
10
-278.491817
20
140.153938
30
0.000000
0
VERTEX
8
0
10
-275.529589
20
137.993520
30
0.000000
0
VERTEX
8
0
10
-273.469049
20
136.568323
30
0.000000
0
VERTEX
8
0
10
-271.391397
20
135.188239
30
0.000000
0
VERTEX
8
0
10
-269.298758
20
133.849925
30
0.000000
0
VERTEX
8
0
10
-267.193260
20
132.550038
30
0.000000
0
VERTEX
8
0
10
-265.077028
20
131.285235
30
0.000000
0
VERTEX
8
0
10
-262.952190
20
130.052172
30
0.000000
0
VERTEX
8
0
10
-258.685200
20
127.667897
30
0.000000
0
VERTEX
8
0
10
-254.409303
20
125.370470
30
0.000000
0
VERTEX
8
0
10
-250.141511
20
123.133144
30
0.000000
0
VERTEX
8
0
10
-245.898838
20
120.929178
30
0.000000
0
VERTEX
8
0
10
-241.698295
20
118.731826
30
0.000000
0
VERTEX
8
0
10
-238.784965
20
117.179316
30
0.000000
0
VERTEX
8
0
10
-235.904624
20
115.605758
30
0.000000
0
VERTEX
8
0
10
-233.061146
20
114.000013
30
0.000000
0
VERTEX
8
0
10
-230.258403
20
112.350942
30
0.000000
0
VERTEX
8
0
10
-227.500269
20
110.647406
30
0.000000
0
VERTEX
8
0
10
-224.790616
20
108.878268
30
0.000000
0
VERTEX
8
0
10
-222.133318
20
107.032388
30
0.000000
0
VERTEX
8
0
10
-220.096229
20
105.529712
30
0.000000
0
VERTEX
8
0
10
-218.095306
20
103.968087
30
0.000000
0
VERTEX
8
0
10
-216.132394
20
102.342202
30
0.000000
0
VERTEX
8
0
10
-214.209341
20
100.646745
30
0.000000
0
VERTEX
8
0
10
-212.327993
20
98.876405
30
0.000000
0
VERTEX
8
0
10
-210.490197
20
97.025870
30
0.000000
0
VERTEX
8
0
10
-208.697800
20
95.089831
30
0.000000
0
VERTEX
8
0
10
-206.952648
20
93.062974
30
0.000000
0
VERTEX
8
0
10
-205.256588
20
90.939989
30
0.000000
0
VERTEX
8
0
10
-204.068901
20
89.351745
30
0.000000
0
VERTEX
8
0
10
-202.908216
20
87.709124
30
0.000000
0
VERTEX
8
0
10
-201.775217
20
86.010156
30
0.000000
0
VERTEX
8
0
10
-200.670590
20
84.252868
30
0.000000
0
VERTEX
8
0
10
-199.595021
20
82.435287
30
0.000000
0
VERTEX
8
0
10
-198.549196
20
80.555442
30
0.000000
0
VERTEX
8
0
10
-197.533800
20
78.611360
30
0.000000
0
VERTEX
8
0
10
-196.549519
20
76.601070
30
0.000000
0
VERTEX
8
0
10
-195.597038
20
74.522599
30
0.000000
0
VERTEX
8
0
10
-194.932470
20
72.985480
30
0.000000
0
VERTEX
8
0
10
-194.284938
20
71.411388
30
0.000000
0
VERTEX
8
0
10
-193.654698
20
69.799591
30
0.000000
0
VERTEX
8
0
10
-193.042004
20
68.149355
30
0.000000
0
VERTEX
8
0
10
-192.447112
20
66.459950
30
0.000000
0
VERTEX
8
0
10
-191.870275
20
64.730642
30
0.000000
0
VERTEX
8
0
10
-191.311748
20
62.960699
30
0.000000
0
VERTEX
8
0
10
-190.771786
20
61.149390
30
0.000000
0
VERTEX
8
0
10
-190.250643
20
59.295981
30
0.000000
0
VERTEX
8
0
10
-189.534983
20
56.556480
30
0.000000
0
VERTEX
8
0
10
-188.859493
20
53.726297
30
0.000000
0
VERTEX
8
0
10
-188.224930
20
50.803256
30
0.000000
0
VERTEX
8
0
10
-187.632052
20
47.785183
30
0.000000
0
VERTEX
8
0
10
-187.081612
20
44.669902
30
0.000000
0
VERTEX
8
0
10
-186.574369
20
41.455237
30
0.000000
0
VERTEX
8
0
10
-186.111079
20
38.139015
30
0.000000
0
VERTEX
8
0
10
-185.692497
20
34.719059
30
0.000000
0
VERTEX
8
0
10
-185.319381
20
31.193195
30
0.000000
0
VERTEX
8
0
10
-185.030794
20
28.019476
30
0.000000
0
VERTEX
8
0
10
-184.778102
20
24.761548
30
0.000000
0
VERTEX
8
0
10
-184.561811
20
21.417955
30
0.000000
0
VERTEX
8
0
10
-184.382429
20
17.987238
30
0.000000
0
VERTEX
8
0
10
-184.240461
20
14.467941
30
0.000000
0
VERTEX
8
0
10
-184.136415
20
10.858607
30
0.000000
0
VERTEX
8
0
10
-184.070798
20
7.157777
30
0.000000
0
VERTEX
8
0
10
-184.044115
20
3.363997
30
0.000000
0
SEQEND
8
0
0
POLYLINE
8
0
6
Continuous
70
0
66
 1
10
0.0
20
0.0
30
0.000000
0
VERTEX
8
0
10
666.419139
20
1.697275
30
0.000000
0
VERTEX
8
0
10
666.419139
20
4.697275
30
0.000000
0
VERTEX
8
0
10
666.419139
20
14.611164
30
0.000000
0
VERTEX
8
0
10
669.419139
20
14.611164
30
0.000000
0
VERTEX
8
0
10
669.419139
20
24.450053
30
0.000000
0
VERTEX
8
0
10
666.419139
20
24.450053
30
0.000000
0
VERTEX
8
0
10
666.419139
20
34.388942
30
0.000000
0
VERTEX
8
0
10
669.419139
20
34.388942
30
0.000000
0
VERTEX
8
0
10
669.419139
20
44.227831
30
0.000000
0
VERTEX
8
0
10
666.419139
20
44.227831
30
0.000000
0
VERTEX
8
0
10
666.419139
20
54.166720
30
0.000000
0
VERTEX
8
0
10
669.419139
20
54.166720
30
0.000000
0
VERTEX
8
0
10
669.419139
20
64.005608
30
0.000000
0
VERTEX
8
0
10
666.419139
20
64.005608
30
0.000000
0
VERTEX
8
0
10
666.419139
20
73.944497
30
0.000000
0
VERTEX
8
0
10
669.419139
20
73.944497
30
0.000000
0
VERTEX
8
0
10
669.419139
20
83.783386
30
0.000000
0
VERTEX
8
0
10
666.419139
20
83.783386
30
0.000000
0
VERTEX
8
0
10
666.419139
20
93.697275
30
0.000000
0
VERTEX
8
0
10
666.419139
20
96.697275
30
0.000000
0
SEQEND
8
0
0
POLYLINE
8
0
6
Continuous
70
0
66
 1
10
0.0
20
0.0
30
0.000000
0
VERTEX
8
0
10
666.419139
20
1.697275
30
0.000000
0
VERTEX
8
0
10
655.936381
20
1.697275
30
0.000000
0
VERTEX
8
0
10
655.936381
20
4.697275
30
0.000000
0
VERTEX
8
0
10
645.453622
20
4.697275
30
0.000000
0
VERTEX
8
0
10
645.453622
20
1.697275
30
0.000000
0
VERTEX
8
0
10
634.970864
20
1.697275
30
0.000000
0
VERTEX
8
0
10
634.970864
20
4.697275
30
0.000000
0
VERTEX
8
0
10
624.488105
20
4.697275
30
0.000000
0
VERTEX
8
0
10
624.488105
20
1.697275
30
0.000000
0
VERTEX
8
0
10
614.005346
20
1.697275
30
0.000000
0
VERTEX
8
0
10
614.005346
20
4.697275
30
0.000000
0
VERTEX
8
0
10
603.522588
20
4.697275
30
0.000000
0
VERTEX
8
0
10
603.522588
20
1.697275
30
0.000000
0
VERTEX
8
0
10
593.039829
20
1.697275
30
0.000000
0
VERTEX
8
0
10
593.039829
20
4.697275
30
0.000000
0
VERTEX
8
0
10
582.557070
20
4.697275
30
0.000000
0
VERTEX
8
0
10
582.557070
20
1.697275
30
0.000000
0
VERTEX
8
0
10
572.074312
20
1.697275
30
0.000000
0
VERTEX
8
0
10
572.074312
20
4.697275
30
0.000000
0
VERTEX
8
0
10
561.591553
20
4.697275
30
0.000000
0
VERTEX
8
0
10
561.591553
20
1.697275
30
0.000000
0
VERTEX
8
0
10
551.108795
20
1.697275
30
0.000000
0
VERTEX
8
0
10
551.108795
20
4.697275
30
0.000000
0
VERTEX
8
0
10
540.626036
20
4.697275
30
0.000000
0
VERTEX
8
0
10
540.626036
20
1.697275
30
0.000000
0
VERTEX
8
0
10
530.143277
20
1.697275
30
0.000000
0
VERTEX
8
0
10
530.143277
20
4.697275
30
0.000000
0
VERTEX
8
0
10
519.660519
20
4.697275
30
0.000000
0
VERTEX
8
0
10
519.660519
20
1.697275
30
0.000000
0
VERTEX
8
0
10
509.177760
20
1.697275
30
0.000000
0
VERTEX
8
0
10
509.177760
20
4.697275
30
0.000000
0
VERTEX
8
0
10
498.695001
20
4.697275
30
0.000000
0
VERTEX
8
0
10
498.695001
20
1.697275
30
0.000000
0
VERTEX
8
0
10
488.212243
20
1.697275
30
0.000000
0
VERTEX
8
0
10
488.212243
20
4.697275
30
0.000000
0
VERTEX
8
0
10
477.729484
20
4.697275
30
0.000000
0
VERTEX
8
0
10
477.729484
20
1.697275
30
0.000000
0
VERTEX
8
0
10
467.246726
20
1.697275
30
0.000000
0
VERTEX
8
0
10
467.246726
20
4.697275
30
0.000000
0
VERTEX
8
0
10
456.763967
20
4.697275
30
0.000000
0
VERTEX
8
0
10
456.763967
20
1.697275
30
0.000000
0
VERTEX
8
0
10
446.281208
20
1.697275
30
0.000000
0
VERTEX
8
0
10
446.281208
20
4.697275
30
0.000000
0
VERTEX
8
0
10
435.798450
20
4.697275
30
0.000000
0
VERTEX
8
0
10
435.798450
20
1.697275
30
0.000000
0
VERTEX
8
0
10
425.315691
20
1.697275
30
0.000000
0
VERTEX
8
0
10
425.315691
20
4.697275
30
0.000000
0
VERTEX
8
0
10
414.832932
20
4.697275
30
0.000000
0
VERTEX
8
0
10
414.832932
20
1.697275
30
0.000000
0
VERTEX
8
0
10
404.350174
20
1.697275
30
0.000000
0
VERTEX
8
0
10
404.350174
20
4.697275
30
0.000000
0
VERTEX
8
0
10
393.867415
20
4.697275
30
0.000000
0
VERTEX
8
0
10
393.867415
20
1.697275
30
0.000000
0
VERTEX
8
0
10
383.384657
20
1.697275
30
0.000000
0
VERTEX
8
0
10
383.384657
20
4.697275
30
0.000000
0
VERTEX
8
0
10
372.901898
20
4.697275
30
0.000000
0
VERTEX
8
0
10
372.901898
20
1.697275
30
0.000000
0
VERTEX
8
0
10
362.419139
20
1.697275
30
0.000000
0
SEQEND
8
0
0
POLYLINE
8
0
6
Continuous
70
0
66
 1
10
0.0
20
0.0
30
0.000000
0
VERTEX
8
0
10
666.419139
20
96.697275
30
0.000000
0
VERTEX
8
0
10
655.936381
20
96.697275
30
0.000000
0
VERTEX
8
0
10
655.936381
20
93.697275
30
0.000000
0
VERTEX
8
0
10
645.453622
20
93.697275
30
0.000000
0
VERTEX
8
0
10
645.453622
20
96.697275
30
0.000000
0
VERTEX
8
0
10
634.970864
20
96.697275
30
0.000000
0
VERTEX
8
0
10
634.970864
20
93.697275
30
0.000000
0
VERTEX
8
0
10
624.488105
20
93.697275
30
0.000000
0
VERTEX
8
0
10
624.488105
20
96.697275
30
0.000000
0
VERTEX
8
0
10
614.005346
20
96.697275
30
0.000000
0
VERTEX
8
0
10
614.005346
20
93.697275
30
0.000000
0
VERTEX
8
0
10
603.522588
20
93.697275
30
0.000000
0
VERTEX
8
0
10
603.522588
20
96.697275
30
0.000000
0
VERTEX
8
0
10
593.039829
20
96.697275
30
0.000000
0
VERTEX
8
0
10
593.039829
20
93.697275
30
0.000000
0
VERTEX
8
0
10
582.557070
20
93.697275
30
0.000000
0
VERTEX
8
0
10
582.557070
20
96.697275
30
0.000000
0
VERTEX
8
0
10
572.074312
20
96.697275
30
0.000000
0
VERTEX
8
0
10
572.074312
20
93.697275
30
0.000000
0
VERTEX
8
0
10
561.591553
20
93.697275
30
0.000000
0
VERTEX
8
0
10
561.591553
20
96.697275
30
0.000000
0
VERTEX
8
0
10
551.108795
20
96.697275
30
0.000000
0
VERTEX
8
0
10
551.108795
20
93.697275
30
0.000000
0
VERTEX
8
0
10
540.626036
20
93.697275
30
0.000000
0
VERTEX
8
0
10
540.626036
20
96.697275
30
0.000000
0
VERTEX
8
0
10
530.143277
20
96.697275
30
0.000000
0
VERTEX
8
0
10
530.143277
20
93.697275
30
0.000000
0
VERTEX
8
0
10
519.660519
20
93.697275
30
0.000000
0
VERTEX
8
0
10
519.660519
20
96.697275
30
0.000000
0
VERTEX
8
0
10
509.177760
20
96.697275
30
0.000000
0
VERTEX
8
0
10
509.177760
20
93.697275
30
0.000000
0
VERTEX
8
0
10
498.695001
20
93.697275
30
0.000000
0
VERTEX
8
0
10
498.695001
20
96.697275
30
0.000000
0
VERTEX
8
0
10
488.212243
20
96.697275
30
0.000000
0
VERTEX
8
0
10
488.212243
20
93.697275
30
0.000000
0
VERTEX
8
0
10
477.729484
20
93.697275
30
0.000000
0
VERTEX
8
0
10
477.729484
20
96.697275
30
0.000000
0
VERTEX
8
0
10
467.246726
20
96.697275
30
0.000000
0
VERTEX
8
0
10
467.246726
20
93.697275
30
0.000000
0
VERTEX
8
0
10
456.763967
20
93.697275
30
0.000000
0
VERTEX
8
0
10
456.763967
20
96.697275
30
0.000000
0
VERTEX
8
0
10
446.281208
20
96.697275
30
0.000000
0
VERTEX
8
0
10
446.281208
20
93.697275
30
0.000000
0
VERTEX
8
0
10
435.798450
20
93.697275
30
0.000000
0
VERTEX
8
0
10
435.798450
20
96.697275
30
0.000000
0
VERTEX
8
0
10
425.315691
20
96.697275
30
0.000000
0
VERTEX
8
0
10
425.315691
20
93.697275
30
0.000000
0
VERTEX
8
0
10
414.832932
20
93.697275
30
0.000000
0
VERTEX
8
0
10
414.832932
20
96.697275
30
0.000000
0
VERTEX
8
0
10
404.350174
20
96.697275
30
0.000000
0
VERTEX
8
0
10
404.350174
20
93.697275
30
0.000000
0
VERTEX
8
0
10
393.867415
20
93.697275
30
0.000000
0
VERTEX
8
0
10
393.867415
20
96.697275
30
0.000000
0
VERTEX
8
0
10
383.384657
20
96.697275
30
0.000000
0
VERTEX
8
0
10
383.384657
20
93.697275
30
0.000000
0
VERTEX
8
0
10
372.901898
20
93.697275
30
0.000000
0
VERTEX
8
0
10
372.901898
20
96.697275
30
0.000000
0
VERTEX
8
0
10
362.419139
20
96.697275
30
0.000000
0
SEQEND
8
0
0
POLYLINE
8
0
6
Continuous
70
0
66
 1
10
0.0
20
0.0
30
0.000000
0
VERTEX
8
0
10
362.419139
20
1.697275
30
0.000000
0
VERTEX
8
0
10
362.419139
20
96.697275
30
0.000000
0
SEQEND
8
0
0
LINE
8
0
6
Continuous
10
242.415000
20
3.000000
30
0.000000
11
245.415000
21
3.000000
31
0.000000
0
LINE
8
0
6
Continuous
10
245.415000
20
3.000000
30
0.000000
11
255.328889
21
3.000000
31
0.000000
0
LINE
8
0
6
Continuous
10
255.328889
20
3.000000
30
0.000000
11
255.328889
21
0.000000
31
0.000000
0
LINE
8
0
6
Continuous
10
255.328889
20
0.000000
30
0.000000
11
265.167778
21
0.000000
31
0.000000
0
LINE
8
0
6
Continuous
10
265.167778
20
0.000000
30
0.000000
11
265.167778
21
3.000000
31
0.000000
0
LINE
8
0
6
Continuous
10
265.167778
20
3.000000
30
0.000000
11
275.106667
21
3.000000
31
0.000000
0
LINE
8
0
6
Continuous
10
275.106667
20
3.000000
30
0.000000
11
275.106667
21
0.000000
31
0.000000
0
LINE
8
0
6
Continuous
10
275.106667
20
0.000000
30
0.000000
11
284.945556
21
0.000000
31
0.000000
0
LINE
8
0
6
Continuous
10
284.945556
20
0.000000
30
0.000000
11
284.945556
21
3.000000
31
0.000000
0
LINE
8
0
6
Continuous
10
284.945556
20
3.000000
30
0.000000
11
294.884444
21
3.000000
31
0.000000
0
LINE
8
0
6
Continuous
10
294.884444
20
3.000000
30
0.000000
11
294.884444
21
0.000000
31
0.000000
0
LINE
8
0
6
Continuous
10
294.884444
20
0.000000
30
0.000000
11
304.723333
21
0.000000
31
0.000000
0
LINE
8
0
6
Continuous
10
304.723333
20
0.000000
30
0.000000
11
304.723333
21
3.000000
31
0.000000
0
LINE
8
0
6
Continuous
10
304.723333
20
3.000000
30
0.000000
11
314.662222
21
3.000000
31
0.000000
0
LINE
8
0
6
Continuous
10
314.662222
20
3.000000
30
0.000000
11
314.662222
21
0.000000
31
0.000000
0
LINE
8
0
6
Continuous
10
314.662222
20
0.000000
30
0.000000
11
324.501111
21
0.000000
31
0.000000
0
LINE
8
0
6
Continuous
10
324.501111
20
0.000000
30
0.000000
11
324.501111
21
3.000000
31
0.000000
0
LINE
8
0
6
Continuous
10
324.501111
20
3.000000
30
0.000000
11
334.415000
21
3.000000
31
0.000000
0
LINE
8
0
6
Continuous
10
334.415000
20
3.000000
30
0.000000
11
337.415000
21
3.000000
31
0.000000
0
LINE
8
0
6
Continuous
10
242.415000
20
3.000000
30
0.000000
11
242.415000
21
13.482759
31
0.000000
0
LINE
8
0
6
Continuous
10
242.415000
20
13.482759
30
0.000000
11
245.415000
21
13.482759
31
0.000000
0
LINE
8
0
6
Continuous
10
245.415000
20
13.482759
30
0.000000
11
245.415000
21
23.965517
31
0.000000
0
LINE
8
0
6
Continuous
10
245.415000
20
23.965517
30
0.000000
11
242.415000
21
23.965517
31
0.000000
0
LINE
8
0
6
Continuous
10
242.415000
20
23.965517
30
0.000000
11
242.415000
21
34.448276
31
0.000000
0
LINE
8
0
6
Continuous
10
242.415000
20
34.448276
30
0.000000
11
245.415000
21
34.448276
31
0.000000
0
LINE
8
0
6
Continuous
10
245.415000
20
34.448276
30
0.000000
11
245.415000
21
44.931034
31
0.000000
0
LINE
8
0
6
Continuous
10
245.415000
20
44.931034
30
0.000000
11
242.415000
21
44.931034
31
0.000000
0
LINE
8
0
6
Continuous
10
242.415000
20
44.931034
30
0.000000
11
242.415000
21
55.413793
31
0.000000
0
LINE
8
0
6
Continuous
10
242.415000
20
55.413793
30
0.000000
11
245.415000
21
55.413793
31
0.000000
0
LINE
8
0
6
Continuous
10
245.415000
20
55.413793
30
0.000000
11
245.415000
21
65.896552
31
0.000000
0
LINE
8
0
6
Continuous
10
245.415000
20
65.896552
30
0.000000
11
242.415000
21
65.896552
31
0.000000
0
LINE
8
0
6
Continuous
10
242.415000
20
65.896552
30
0.000000
11
242.415000
21
76.379310
31
0.000000
0
LINE
8
0
6
Continuous
10
242.415000
20
76.379310
30
0.000000
11
245.415000
21
76.379310
31
0.000000
0
LINE
8
0
6
Continuous
10
245.415000
20
76.379310
30
0.000000
11
245.415000
21
86.862069
31
0.000000
0
LINE
8
0
6
Continuous
10
245.415000
20
86.862069
30
0.000000
11
242.415000
21
86.862069
31
0.000000
0
LINE
8
0
6
Continuous
10
242.415000
20
86.862069
30
0.000000
11
242.415000
21
97.344828
31
0.000000
0
LINE
8
0
6
Continuous
10
242.415000
20
97.344828
30
0.000000
11
245.415000
21
97.344828
31
0.000000
0
LINE
8
0
6
Continuous
10
245.415000
20
97.344828
30
0.000000
11
245.415000
21
107.827586
31
0.000000
0
LINE
8
0
6
Continuous
10
245.415000
20
107.827586
30
0.000000
11
242.415000
21
107.827586
31
0.000000
0
LINE
8
0
6
Continuous
10
242.415000
20
107.827586
30
0.000000
11
242.415000
21
118.310345
31
0.000000
0
LINE
8
0
6
Continuous
10
242.415000
20
118.310345
30
0.000000
11
245.415000
21
118.310345
31
0.000000
0
LINE
8
0
6
Continuous
10
245.415000
20
118.310345
30
0.000000
11
245.415000
21
128.793103
31
0.000000
0
LINE
8
0
6
Continuous
10
245.415000
20
128.793103
30
0.000000
11
242.415000
21
128.793103
31
0.000000
0
LINE
8
0
6
Continuous
10
242.415000
20
128.793103
30
0.000000
11
242.415000
21
139.275862
31
0.000000
0
LINE
8
0
6
Continuous
10
242.415000
20
139.275862
30
0.000000
11
245.415000
21
139.275862
31
0.000000
0
LINE
8
0
6
Continuous
10
245.415000
20
139.275862
30
0.000000
11
245.415000
21
149.758621
31
0.000000
0
LINE
8
0
6
Continuous
10
245.415000
20
149.758621
30
0.000000
11
242.415000
21
149.758621
31
0.000000
0
LINE
8
0
6
Continuous
10
242.415000
20
149.758621
30
0.000000
11
242.415000
21
160.241379
31
0.000000
0
LINE
8
0
6
Continuous
10
242.415000
20
160.241379
30
0.000000
11
245.415000
21
160.241379
31
0.000000
0
LINE
8
0
6
Continuous
10
245.415000
20
160.241379
30
0.000000
11
245.415000
21
170.724138
31
0.000000
0
LINE
8
0
6
Continuous
10
337.415000
20
3.000000
30
0.000000
11
337.415000
21
13.482759
31
0.000000
0
LINE
8
0
6
Continuous
10
337.415000
20
13.482759
30
0.000000
11
334.415000
21
13.482759
31
0.000000
0
LINE
8
0
6
Continuous
10
334.415000
20
13.482759
30
0.000000
11
334.415000
21
23.965517
31
0.000000
0
LINE
8
0
6
Continuous
10
334.415000
20
23.965517
30
0.000000
11
337.415000
21
23.965517
31
0.000000
0
LINE
8
0
6
Continuous
10
337.415000
20
23.965517
30
0.000000
11
337.415000
21
34.448276
31
0.000000
0
LINE
8
0
6
Continuous
10
337.415000
20
34.448276
30
0.000000
11
334.415000
21
34.448276
31
0.000000
0
LINE
8
0
6
Continuous
10
334.415000
20
34.448276
30
0.000000
11
334.415000
21
44.931034
31
0.000000
0
LINE
8
0
6
Continuous
10
334.415000
20
44.931034
30
0.000000
11
337.415000
21
44.931034
31
0.000000
0
LINE
8
0
6
Continuous
10
337.415000
20
44.931034
30
0.000000
11
337.415000
21
55.413793
31
0.000000
0
LINE
8
0
6
Continuous
10
337.415000
20
55.413793
30
0.000000
11
334.415000
21
55.413793
31
0.000000
0
LINE
8
0
6
Continuous
10
334.415000
20
55.413793
30
0.000000
11
334.415000
21
65.896552
31
0.000000
0
LINE
8
0
6
Continuous
10
334.415000
20
65.896552
30
0.000000
11
337.415000
21
65.896552
31
0.000000
0
LINE
8
0
6
Continuous
10
337.415000
20
65.896552
30
0.000000
11
337.415000
21
76.379310
31
0.000000
0
LINE
8
0
6
Continuous
10
337.415000
20
76.379310
30
0.000000
11
334.415000
21
76.379310
31
0.000000
0
LINE
8
0
6
Continuous
10
334.415000
20
76.379310
30
0.000000
11
334.415000
21
86.862069
31
0.000000
0
LINE
8
0
6
Continuous
10
334.415000
20
86.862069
30
0.000000
11
337.415000
21
86.862069
31
0.000000
0
LINE
8
0
6
Continuous
10
337.415000
20
86.862069
30
0.000000
11
337.415000
21
97.344828
31
0.000000
0
LINE
8
0
6
Continuous
10
337.415000
20
97.344828
30
0.000000
11
334.415000
21
97.344828
31
0.000000
0
LINE
8
0
6
Continuous
10
334.415000
20
97.344828
30
0.000000
11
334.415000
21
107.827586
31
0.000000
0
LINE
8
0
6
Continuous
10
334.415000
20
107.827586
30
0.000000
11
337.415000
21
107.827586
31
0.000000
0
LINE
8
0
6
Continuous
10
337.415000
20
107.827586
30
0.000000
11
337.415000
21
118.310345
31
0.000000
0
LINE
8
0
6
Continuous
10
337.415000
20
118.310345
30
0.000000
11
334.415000
21
118.310345
31
0.000000
0
LINE
8
0
6
Continuous
10
334.415000
20
118.310345
30
0.000000
11
334.415000
21
128.793103
31
0.000000
0
LINE
8
0
6
Continuous
10
334.415000
20
128.793103
30
0.000000
11
337.415000
21
128.793103
31
0.000000
0
LINE
8
0
6
Continuous
10
337.415000
20
128.793103
30
0.000000
11
337.415000
21
139.275862
31
0.000000
0
LINE
8
0
6
Continuous
10
337.415000
20
139.275862
30
0.000000
11
334.415000
21
139.275862
31
0.000000
0
LINE
8
0
6
Continuous
10
334.415000
20
139.275862
30
0.000000
11
334.415000
21
149.758621
31
0.000000
0
LINE
8
0
6
Continuous
10
334.415000
20
149.758621
30
0.000000
11
337.415000
21
149.758621
31
0.000000
0
LINE
8
0
6
Continuous
10
337.415000
20
149.758621
30
0.000000
11
337.415000
21
160.241379
31
0.000000
0
LINE
8
0
6
Continuous
10
337.415000
20
160.241379
30
0.000000
11
334.415000
21
160.241379
31
0.000000
0
LINE
8
0
6
Continuous
10
334.415000
20
160.241379
30
0.000000
11
334.415000
21
170.724138
31
0.000000
0
LINE
8
0
6
Continuous
10
245.415000
20
170.724138
30
0.000000
11
334.415000
21
170.724138
31
0.000000
0
CIRCLE
8
0
6
Continuous
10
589.431217
20
49.192694
40
10.500000
0
ENDSEC
0
EOF
